Oops, an error
Loading. Please wait.

Mujer Perfecta chords

by Plan B
43 views 1 this week
no commentswrite comment
1 2 3 4 5
3 more votes to show rating
add to favorites
×
Save as Personal and add changes to this tab that will be seen only by you. Learn more ›
×
You can save this tab as Personal to edit and correct it or add notes. All changes will be seen only by you. Learn more »
launch autoscroll
font size
0
reset
transpose
0
reset
display chords
guitar tuner
edit
Autoscroll
slow
fast
+/-
esc
set tempo
stop
Strumming
There is no strumming pattern for this song yet. and get +5 IQ
Plan B - Mujer perfecta

[Intro]

En la 1era parte del intro dejas sonar la ultima nota y la siguiente parte 
es con palm mute

|------------------------------------------------------|-------------------|
|------------------------------------------------------|-------------------|
|---9-9-9----------------------------------------------|-------------------| 
|---9-9-9--9-9-9--11-11-11--7-7-7--11-11-11--7-7-7--9--|--9-9-9-9-9-9-9-9--|
|---7-7-7--9-9-9--11-11-11--7-7-7--11-11-11--7-7-7--9--|--9-9-9-9-9-9-9-9--|
|----------7-7-7--9--9--9---5-5-5--9--9--9---5-5-5--7--|--7-7-7-7-7-7-7-7--|

|------------------------------------------------------|-------------------|
|------------------------------------------------------|-------------------|
|---9-9-9----------------------------------------------|-------------------|
|---9-9-9--9-9-9--11-11-11--7-7-7--11-11-11--7-7-7--9--|--9-9-9-9-9-9-9-9--|
|---7-7-7--9-9-9--11-11-11--7-7-7--11-11-11--7-7-7--9--|--9-9-9-9-9-9-9-9--|
|----------7-7-7--9--9--9---5-5-5--9--9--9---5-5-5--7--|--7-7-7-7-7-7-7-7--|

era un dia normal...

(En esta parte dejas sonar la nota)

|-----------|
|-----------|
|-----9-----|
|-----9-----|
|-----7-----|
|-----------|

sin pensarlo mas...

(palm mute)
 
|-----------------------------------------------------------------------------|
|-----------------------------------------------------------------------------|
|---9-9-9-9-9-9-9-9-----------------11-11-11-11-11-11-11-11-------------------|
|---9-9-9-9-9-9-9-9-9-9-9-9-9-9-9-9-11-11-11-11-11-11-11-11-7-7-7-7-7-7-7-7---|
|---7-7-7-7-7-7-7-7-9-9-9-9-9-9-9-9--9--9--9--9--9--9--9--9-7-7-7-7-7-7-7-7---|
|-------------------7-7-7-7-7-7-7-7-------------------------5-5-5-5-5-5-5-5---|

me fui a un bar... 

(palm mute)

|-----------------------------------------------------------------------------|
|-----------------------------------------------------------------------------|
|---9-9-9-9-9-9-9-9-----------------11-11-11-11-11-11-11-11-------------------|
|---9-9-9-9-9-9-9-9-9-9-9-9-9-9-9-9-11-11-11-11-11-11-11-11-7-7-7-7-7-7-7-7---|
|---7-7-7-7-7-7-7-7-9-9-9-9-9-9-9-9--9--9--9--9--9--9--9--9-7-7-7-7-7-7-7-7---|
|-------------------7-7-7-7-7-7-7-7-------------------------5-5-5-5-5-5-5-5---|

no podia creer...

(en esta parte tocas una vez cada nota y la dejas sonar)

|-------------------------|
|-------------------------|
|----9---------11---------|
|----9----9----11----7----|
|----7----9----9-----7----|
|---------7----------5----|

era todo lo que yo podia pedir...

(esta parte es igual a la anterior)

|-------------------------|
|-------------------------|
|----9---------11---------|
|----9----9----11----7----|
|----7----9----9-----7----|
|---------7----------5----|

mujer perfecta nada le falta...

(se repite dos veces)

|-----------------------------------------------------|
|-----------------------------------------------------|
|---9-9-9-9-9-------------11-11-11-11-11--------------|
|---9-9-9-9-9--9-9-9-9-9--11-11-11-11-11--7-7-7-7-7---|
|---7-7-7-7-7--9-9-9-9-9--9--9--9--9--9---7-7-7-7-7---|
|--------------7-7-7-7-7------------------5-5-5-5-5---|

mujer perfecta tus ojos ...

(se repite dos veces)

|-----------------------------------------------------|
|-----------------------------------------------------|
|---9-9-9-9-9-------------11-11-11-11-11--------------|
|---9-9-9-9-9--9-9-9-9-9--11-11-11-11-11--7-7-7-7-7---|
|---7-7-7-7-7--9-9-9-9-9--9--9--9--9--9---7-7-7-7-7---|
|--------------7-7-7-7-7------------------5-5-5-5-5---|

[repites el intro]

|------------------------------------------------------|-------------------|
|------------------------------------------------------|-------------------|
|---9-9-9----------------------------------------------|-------------------| 
|---9-9-9--9-9-9--11-11-11--7-7-7--11-11-11--7-7-7--9--|--9-9-9-9-9-9-9-9--|
|---7-7-7--9-9-9--11-11-11--7-7-7--11-11-11--7-7-7--9--|--9-9-9-9-9-9-9-9--|
|----------7-7-7--9--9--9---5-5-5--9--9--9---5-5-5--7--|--7-7-7-7-7-7-7-7--|

|------------------------------------------------------|-------------------|
|------------------------------------------------------|-------------------|
|---9-9-9----------------------------------------------|-------------------|
|---9-9-9--9-9-9--11-11-11--7-7-7--11-11-11--7-7-7--9--|--9-9-9-9-9-9-9-9--|
|---7-7-7--9-9-9--11-11-11--7-7-7--11-11-11--7-7-7--9--|--9-9-9-9-9-9-9-9--|
|----------7-7-7--9--9--9---5-5-5--9--9--9---5-5-5--7--|--7-7-7-7-7-7-7-7--|

otro dia normal...

(se repite dos veces con palm mute)

|-------------------------------------------------------------------|
|-------------------------------------------------------------------|
|-------9-------9-----------------------9-------9-------------------|
|---x-x-9-x-x-x-9-x-x-x-9-x-x-x-9-x-x-x-9-x-x-x-9-x-x-x-9-x-x-x-9---|
|---x-x---x-x-x---x-x-x-9-x-x-x-9-x-x-x---x-x-x---x-x-x-9-x-x-x-9---|
|---x-x---x-x-x---x-x-x---x-x-x---x-x-x---x-x-x---x-x-x---x-x-x-----|

no podia creer...

(en esta parte tocas una vez cada nota y la dejas sonar)

|-------------------------|
|-------------------------|
|----9---------11---------|
|----9----9----11----7----|
|----7----9----9-----7----|
|---------7----------5----|

era todo lo que yo podia pedir...

(esta parte es igual a la anterior)

|-------------------------|
|-------------------------|
|----9---------11---------|
|----9----9----11----7----|
|----7----9----9-----7----|
|---------7----------5----|

mujer perfecta nada le falta...

(se repite dos veces)

|-----------------------------------------------------|
|-----------------------------------------------------|
|---9-9-9-9-9-------------11-11-11-11-11--------------|
|---9-9-9-9-9--9-9-9-9-9--11-11-11-11-11--7-7-7-7-7---|
|---7-7-7-7-7--9-9-9-9-9--9--9--9--9--9---7-7-7-7-7---|
|--------------7-7-7-7-7------------------5-5-5-5-5---|

mujer perfecta tus ojos ...

(se repite dos veces)

|-----------------------------------------------------|
|-----------------------------------------------------|
|---9-9-9-9-9-------------11-11-11-11-11--------------|
|---9-9-9-9-9--9-9-9-9-9--11-11-11-11-11--7-7-7-7-7---|
|---7-7-7-7-7--9-9-9-9-9--9--9--9--9--9---7-7-7-7-7---|
|--------------7-7-7-7-7------------------5-5-5-5-5---|


(esta parte la repites tres veces con palm mute)

|--------------------------------------------|
|--------------------------------------------|
|-------9-------9--------9-------9-------9---|
|---x-x-9-x-x-x-9--x-x-x-9-x-x-x-9-x-x-x-9---|
|---x-x---x-x-x----x-x-x---x-x-x---x-x-x-----|
|---x-x---x-x-x----x-x-x---x-x-x---x-x-x-----|

na na na....

(esta parte es igual a la anterior)

|--------------------------------------------|
|--------------------------------------------|
|-------9-------9--------9-------9-------9---|
|---x-x-9-x-x-x-9--x-x-x-9-x-x-x-9-x-x-x-9---|
|---x-x---x-x-x----x-x-x---x-x-x---x-x-x-----|
|---x-x---x-x-x----x-x-x---x-x-x---x-x-x-----|

mujer perfecta nada le falta...

(esta parte se repite dos veces)

|-----------------------------------------------------|
|-----------------------------------------------------|
|---9-9-9-9-9-------------11-11-11-11-11--------------|
|---9-9-9-9-9--9-9-9-9-9--11-11-11-11-11--7-7-7-7-7---|   
|---7-7-7-7-7--9-9-9-9-9--9--9--9--9--9---7-7-7-7-7---|
|--------------7-7-7-7-7------------------5-5-5-5-5---|

mujer perfecta tus ojos ...

|-----------------------------------------------------|
|-----------------------------------------------------|
|---9-9-9-9-9-------------11-11-11-11-11--------------|
|---9-9-9-9-9--9-9-9-9-9--11-11-11-11-11--7-7-7-7-7---|
|---7-7-7-7-7--9-9-9-9-9--9--9--9--9--9---7-7-7-7-7---|
|--------------7-7-7-7-7------------------5-5-5-5-5---|

(la ultima nota la dejas sonar)

|--------------------------------------------------------|
|--------------------------------------------------------|
|---9-9-9-9-9-------------11-11-11-11-11-------------9---|
|---9-9-9-9-9--9-9-9-9-9--11-11-11-11-11--7-7-7-7-7--9---|
|---7-7-7-7-7--9-9-9-9-9--9--9--9--9--9---7-7-7-7-7--7---|
|--------------7-7-7-7-7------------------5-5-5-5-5------|


Era un dia normal 
aun no estaba preparado 
de lo que me podia pasar
Nada que contar la misma rutina 
de todos los dias sin igual  
Sin pensarlo mas 
tuve que salir corriendo 
de mi casa para poder escapar 
me fui a un bar 
donde ese momento 
en que mi vida por completo iba a cambiar
no podia creer lo que yo vi ahi
era la mujer que siempre soñe 
era todo lo que yo podia pedir
era una mujer 


mujer perfecta nada le falta nada le afecta 
todo lo tiene es la mas bella 
reina entre reinas es la mejor

mujer perfecta tus ojos matan sus labios queman
sencilla y esbelta que buenas piernas 
quisiera tenerte en mi habitacion

Otro dia normal 
estaba en una fiesta con todos mis amigos 
sali conversar y la vi pasar 
a la misma chica que vi el otro dia en aquel lugar
no podia creer que ella estaba ahi 
era la mujer que vi el otra vez 
era todo lo que yo podia pedir
era una mujer 

mujer perfecta nada la falta nada le afecta 
todo lo tiene es la mas bella 
reina entre reinas es la mejor
mujer perfecta tus ojos matan sus labios queman
sencilla y esbelta que buenas piernas 
quisisera tenerte en mi habitacion

uuuoooo....

Para todos quienes gustan de Plan B, especialmente las chicas
espero q les ayude y si alguien puede mandarme algo de 
informacion de Plan B ¿en donde consigo musica de ellos?
les agradeceria que me escriban... bye

            
            
Suggest correction
Creating personal tab
Creating personal tab
You can edit any tab online and save it as your Personal.

You can edit, replace or remove any tab part or add personal notes – all changes will be seen only by you.

Personal tabs can be accessed anytime from any device, even offline.
Learn more »
Give kudos to tab author, rate the tab!
1 2 3 4 5
comments
print report bad tab
guest
Wanna post a correction for this tab? Suggest correction