Oops, an error
Loading. Please wait.

She Said Bass Tab

version 2
version 2

Whole song

7,390 views 6 this week
no commentswrite comment
1 2 3 4 5
2 more votes to show rating
add to favorites
launch autoscroll
font size
0
reset
guitar tuner
Autoscroll
slow
fast
+/-
esc
set tempo
stop
Help us to improve Ultimate-Guitar.com Take our survey!
×
Difficulty
intermediate
-------------------------------------------------------------------------------
			     She Said - Plan B
-------------------------------------------------------------------------------

Tabbed By : Ed Allonby
e-mail: ed.allonby@blueyonder.co.uk

Tuning: E, A, D, G

I got a few people requesting tabs for this, so I help this helps. I did play this 
with a 5 string, which I think sounds nicer for the low F notes, in this tab 
however the F notes are actually an octave higher on the A string fret 8.

Intro
G|---------------------------------|x2
D|---------------------------------|
A|-----6--6-----6--6-6-------------|
E|---------------------------------|

G|----------------------------------------------------------------------------|
D|----------------------------------------------------------------------------|
A|--6--6----6--6-----------4--6--6---6--6----------4------------------------4-|
E|----------------x--4--6-----------------x--4--6-----6--6---6---6--x--4--6---|

G|--------------------------|x2----------------|
D|--------------------------|------------------|
A|------------------------4-|-----6hold--------|
E|-6--6---6---6--x--4--6----|------------------|

Verse
G|------------8-------------------|x2-----------------------------|x2
D|---------8-----8----------------|-------------------8-----------|
A|--6--6------------9---6---9---6-|---------8----5/8-----8--9--8--|
E|--------------------------------|---6--6----6-------------------|

G|------------8-------------------|--------------------------------|
D|---------8-----8----------------|---------------8--9--8----------|
A|--6--6------------9---6---9---6-|--6--6----6/8-------------9---6-|
E|--------------------------------|--------6-----------------------|


G|-------------------------------|-----------------------------------|
D|-------------------------------|--------------------8-----8--9--8--|
A|--------8------5--6--8----6----|----------8----5/8-----------------|
E|--6--6-----6-------------------|----6--6----6----------------------|

Pre-chorus
G|-----------------------------------------------------------------------|
D|-------------------8--11----8--11--------------------8----8--9---------|
A|--9--9------9--11--------------------------8----5/8--------------------|
E|---------9---------------------------6--6----6-------------------------|

G|-----------------------------------------------------------------|
D|-------------------8--11----8--11---------------8-8-8-8-8-8\-----|
A|--9--9------9--11---------------------------5/8------------------|
E|---------9---------------------------6--6------------------------|

These were the main parts of the song. In the verses, there is a lot of room for 
improvisation. Check out my video http://www.youtube.com/watch?v=wAsYjUi5i74 if 
you want some examples 
of the improvising in the second verse. Hopefully this tab will get 
you started with the song, any questions, feel free to email me!

| /  slide up
| \  slide down
| h  hammer-on
| p  pull-off
| ~  vibrato
| +  harmonic
| x  Mute note
===============================================================================
Suggest correction
Give kudos to tab author, rate the tab!
1 2 3 4 5
comments
print report bad tab
guest
You may want to rate the tab now too:
select rating
Wanna post a correction for this tab? Suggest correction