Oops, an error
Loading. Please wait.

Si No Le Contesto tab

by Plan B
121 views 1 this week
no commentswrite comment
1 2 3 4 5
3 more votes to show rating
add to favorites
×
Save as Personal and add changes to this tab that will be seen only by you. Learn more ›
×
You can save this tab as Personal to edit and correct it or add notes. All changes will be seen only by you. Learn more »
launch autoscroll
font size
0
reset
how to read this tab
guitar tuner
edit
Autoscroll
slow
fast
+/-
esc
set tempo
stop
SI NO LE CONTESTO-PLAN B
TODO CON CAPO EN EL CUARTO TRASTE
ACORDES GENERALES: Am Dm
e, b, g, d, a, E SÓLO INDICAN QUÉ CUERDA

Espero que sea de su agrado!

SI NO LE CONSTESTO*2
e|-----------------------------|
b|-----------------------------|
g|-----------------------------|
d|-2-0------------2-0----------|
a|------3-0-0-3--------3-0-0-3-|
E|-----------------------------|

e|-----------|
b|-----1-----|
g|--2----2---|
d|-2-2-----2-|
a|-----------|
E|-----------|


--ESTRIBILLO (SIEMPRE 2VECES):

SI NO LE CONSTESTO, SE DESESPERA
e|----------------------------|
b|----------------------------|
g|----------------------------|
d|-2-0------------2-0-----0-0-|
a|------3-0-0-0--------3------|
E|----------------------------|

PIENSA QUE CON OTRA ESTOY
e|---------------|
b|---------------|
g|---------------|
d|-0-0-0-2-0-----|
a|-----------3-0-|
E|---------------|

HACIENDO LO QUE LE HACÍA A ELLA
e|----------------------|
b|----------------------|
g|----------------------|
d|-2-0------2-2-0---0-0-|
a|------3-0-------3-----|
E|----------------------|

EA EA EA?
e|----------------|
b|----------------|
g|----------------|
d|-0-2-0----0-----|
a|--------3----0--|
E|----------------|


COMO TU MENTE MAQUINEA
e|---------------------|
b|---------------------|
g|---------------------|
d|-------------2-2-0-0-|
a|-0-0-0-3-0-----------|
E|---------------------|

CUANDO EN LA MÍA ESTOY
e|-------------------|
b|-------------------|
g|-------------------|
d|-0-0-0-2-3-2-0-2-0-|
a|-------------------|
E|-------------------|


MUJER NO QUIERO MÁS PELEAS
e|--------------------|
b|--------------------|
g|--------------------|
d|-2-0------2-0---0-0-|
a|------3-0----3------|
E|--------------------|

(NO MÁS PELEAS)
e|------------|
b|------------|
g|------------|
d|-0-0----0---|
a|------3---3-|
E|------------|

FIN DEL ESTRIBILLO.

TÚ TE SENTIAS BIEN SEGURA, BIEN SEGURA
e|---------------------------|
b|---------------------------|
g|---------------------------|
d|-2-0---0-2-0---0-2-0---0-2-|
a|-----3-------3-------3-----|
E|---------------------------|


DE MI AMOR, SE TE OLVIDÓ
e|---------------|
b|---------------|
g|---------------|
d|-0---2---------|
a|---3---3-3-2-0-|
E|---------------|


QUE NADIE MANDA EN SU CORAZÓN
e|-----------------------|
b|-----------------------|
g|-----------------------|
d|-------------0-0-0-0-2-|
a|-3-2-0-3-2-0-----------|
E|-----------------------|


AHORA ME PIDE AMOR,Y NO TENGO
e|-----------------------|
b|-----------------------|
g|-----------------------|
d|---------0-0-2-0-0-----|
a|-0-0-3-3-----------3-0-|
E|-----------------------|

EN EL TIEMPO QUE ME PEDISTE SE ME MURIÓ
e|-------------------------|
b|-------------------------|
g|-------------------------|
d|-------------------------|
a|-3-3-2-0-3-3-2-0-3-3-2-0-|
E|-------------------------|


NADA DE CHOCOLATE
NI CARTAS, NI FLORES, COPIASTES
I?M SORRY, YO NO LO MATE
MUCHO TIEMPO  LO UTILIZASTES.
SÓLO ME QUERÍAS COMO UN KUATE
DIME LO QUE TÚ TE CREES

SI TENGO OTRA GATA ESO NO ES DE TU INTERÉS
NO TE COGE TANTO EN TRES, SÓLO HABLEMOS DEL SEX
QUE TÚ AHORA ERES MI EX

--ESTRIBILLO DE NUEVO--

Y YO TE DIJE QUE TE IBAS
A VOLVER PA?TRAS?
QUE NADIE COMO YO TE IBA A TRATAR
QUE ESTABA SEGURO QUE TU ESTABAS EQUIVOCA?
PERO TÚ DECIDISTES POR LA VIDA VOLAR
Y VUELA, VUELA...VUELA, VUELA
SI QUIERES PROBAR, DALE PRUEBA
SI NO VALE LA PENA, MEJOR QUE SE MUERA
QUE YO SIGUO TRANQUILO GOZANDO DE LA BUENA
A MI TÚ NO ME VENGAS A MONTAR ESA ESCENA
A MI TÚ NO ME VENGAS CON CUENTITOS DE NOVELA
TÚ SABES QUE POR TI, YO HACÍA LO QUE FUERA
DE LO QUE TÚ TENÍAS,
?
--ESTRIBILLO DE NUEVO--
?

            
            
Suggest correction
Creating personal tab
Creating personal tab
You can edit any tab online and save it as your Personal.

You can edit, replace or remove any tab part or add personal notes – all changes will be seen only by you.

Personal tabs can be accessed anytime from any device, even offline.
Learn more »
Give kudos to tab author, rate the tab!
1 2 3 4 5
comments
print report bad tab
guest
Wanna post a correction for this tab? Suggest correction