Oops, an error
Loading. Please wait.

Stay Too Long Tab

version 2
version 2

Whole song

34,910 views 9 this week
3 commentsread comments
1 2 3 4 5
excellent!
x 6
add to favorites
launch autoscroll
font size
0
reset
how to read this tab
guitar tuner
Autoscroll
slow
fast
+/-
esc
set tempo
stop
Help us to improve Ultimate-Guitar.com Take our survey!
×
Author
-----------------------------------------------------------------------------
                            Plan B - Stay Too Long
-----------------------------------------------------------------------------
Tabbed by: Balazs Toth  
Email: xxbalazs@gmail.com

Tuning: standard

Hy guys. 
I figure it out myself this songs tab but I'm not sure it's 100% perfect.
If somebody find a mistake please contact me.
I think he play the 1st 2nd 3rd and sometimes the 4th strings, 
but I write the whole tabs to figure it out what chords do you need to push.
I don't know all chords name I'm a beginner and this is my first post.

so the tab:

(s=slide)


intro and verse:
      s
e||--1-3--3--3--1--3--1--1--||
B||--1-3--3--5--3--3--1--1--||
G||--2-4--4--5--3--4--2--2--||
D||--3-5--5--5--3--5--3--3--||
A||--3-5--5--3--1--5--3--3--||
E||--1-3--3--X--X--3--1--1--||
     repeat this 4 time


chorus:

e||--1--5--3--3--1--3--1--1--||
B||--1--5--3--5--3--3--1--1--||
G||--2--5--4--5--3--4--2--2--||
D||--3--7--5--5--3--5--3--3--||
A||--3--7--5--3--1--5--3--3--||
E||--1--5--3--X--X--3--1--1--||
      repeat this 2 time


verse:
      s
e||--1-3--3--6--6--6--||
B||--1-3--3--6--8--6--||
G||--2-4--4--7--8--7--||
D||--3-5--5--8--8--8--||
A||--3-5--5--8--6--8--||
E||--1-3--3--6--X--6--||
   repeat this 8 time


chorus:

e||--1--5--3--3--1--3--1--1--||
B||--1--5--3--5--3--3--1--1--||
G||--2--5--4--5--3--4--2--2--||
D||--3--7--5--5--3--5--3--3--||
A||--3--7--5--3--1--5--3--3--||
E||--1--5--3--X--X--3--1--1--||
      repeat this 2 time

verse:
      s
e||--1-3--3--6--6--6--||
B||--1-3--3--6--8--6--||
G||--2-4--4--7--8--7--||
D||--3-5--5--8--8--8--||
A||--3-5--5--8--6--8--||
E||--1-3--3--6--X--6--||
    repeat this 4 time


chorus:

e||--1--5--3--3--1--3--1--1--||
B||--1--5--3--5--3--3--1--1--||
G||--2--5--4--5--3--4--2--2--||
D||--3--7--5--5--3--5--3--3--||
A||--3--7--5--3--1--5--3--3--||
E||--1--5--3--X--X--3--1--1--||
      repeat this 4 time


verse:
      s
e||--1-3--3--6--6--6--||
B||--1-3--3--6--8--6--||
G||--2-4--4--7--8--7--||
D||--3-5--5--8--8--8--||
A||--3-5--5--8--6--8--||
E||--1-3--3--6--X--6--||
   repeat this 23 time

And thats it you play the whole song ^^
modified @ 2011.02.22.
Suggest correction
comments
print report bad tab
3 comments total.
0 reply
sanko 10 wrote on February 3 2010, 04:37 pm

havn't had a chance to listen to it while playing yet but had a little strum then and sounds a good basis yer. Only thing i can tell right away is that i think it will be an Aminor instead of the A that you have put. Good work tho mate

0 reply
sanko 10 wrote on February 3 2010, 04:38 pm

My mistake you have put A minor!sorry!should of really read it properly before putting a comment!

+1 reply
austieman 47 wrote on February 6 2010, 05:10 pm

Good Tab, I'm thinking there might be another G at the end of the verse part? But thats just an idea. Good stu
ff anyway!

guest
You may want to rate the tab now too:
select rating
Please do not post tabs as comments. Select "correction" instead!