Oops, an error
Loading. Please wait.

Thunder In The Night Forever We Ride To Fight Bass Tab

226 views 1 this week
no commentswrite comment
1 2 3 4 5
please rate
add to favorites
launch autoscroll
font size
0
reset
guitar tuner
Autoscroll
slow
fast
+/-
esc
set tempo
stop
Help us to improve Ultimate-Guitar.com Take our survey!
×
  okie dokie then. this is my first tab, so lemme know if anythings wrong e-mail me
at istilllivewithmommy@yahoo.com. didnt really know what to call
  some of the parts since thers really no chorus or anything so just go w/
  it.

  order:
  *intro 3x
  *end of intro 1x
  *verse 4x
  *verse II 2x
  *verse 4x
  *verse II 2x
  *next part 4x
  *end of "next part" 1x
  *rest...
  *after that 2x
  *we ride to fight part 9x
  *end of "we ride to fight part" 1x

  intro:                          end of "intro":
  g------------------------------|-----------------------------------------|
  d------------------------------|-----------------------------------------|
  a------------------------------|-----------------------------------------|
  e-2-00-2-00-2-00-2-00-2020-----|-----(end intro with...)---2^------------|

  verse:
  g-----------------------------------------------------------------------|
  d-----------------------------------------------------------------------|
  a-1111/3333/5555/88888-7-5-0-8-7-5-0-2222/5555--------------------------|
  e-----------------------------------------------------------------------|

  verse II:
  g-----------------------------------------------------------------------|
  d----------------------------2-1----------------------------------------|
  a--111-333-643-754-000000000-----2--------------------------------------|
  e-----------------------------------------------------------------------|

  next part:                         end of "next part":
  g---------------------------------|--------------------------------------|
  d---------------------------------|--------------------------------------|
  a---111-2^-111-3^-111^4-111-555---|---(end with..)--0---(ring)-----------|
  e---------------------------------|----------------------------0--(ring)-|

  after that:
  g------------------------------------------------------------------------|
  a------------------------------------------------------------------------|
  d------------------------------------------------------------------------|
  e---111-333-555-444-000000000000-----------------------------------------|

  we ride to fight part:                     end of "we ride to fight part":
  g------------------------------------------|------------------------------|
  d------------------------------------------|------------------------------|
  a-------5555------4444------3333------1111-|------------------------------|
  e--1111------1111------1111------1111------|--(end with..)--1-------------|

  and thats all there is to that.
comments
We did not receive enough feedback on this tab! Please rate:
print report bad tab
1 2 3 4 5
I want to post or [tab]
guest
You may want to rate the tab now too:
select rating
Please do not post tabs as comments. Select "correction" instead!