Oops, an error
Loading. Please wait.

Mantenha O Respeito Bass Tab

version 1
version 1

Whole song

Interactive

892 views 1 this week
2 commentsread comments
1 2 3 4 5
1 last vote to show rating
add to favorites
launch autoscroll
font size
0
reset
guitar tuner
Autoscroll
slow
fast
+/-
esc
set tempo
stop
Help us to improve Ultimate-Guitar.com Take our survey!
×
Song Title: Mantenha o Respeito
Artist: Planet Hemp
----------------------------------------------

Another brazilian band.
This is "Mantenha o Respeito" by Planet Hemp.

This is the main line:
G:------------------------------------------------------------------------
D:------------------------------------------------------------------------
A:---------2-2-2-2-0-0-0-0-5-5-5-7----------------------------------------
E:-0-0-0-0----------------------------------------------------------------

Just play it faster on the chorus. Listen to get it right.

Submitted by:  Fabio P. Carvalho (cmaria@unisys.com.br)
Suggest correction
Give kudos to tab author, rate the tab!
1 2 3 4 5
comments
print report bad tab
2 comments total.
+1 reply
petey_5150 91 Jan 08, 2008 11:45 PM

G:------------------------------------------------------------------
D:------------------------------------------------
------------------
A:---------3-3-3-3-2-2-2-2-5-5-5-7----------------------------------
E:-1-1-1-1--------------------
--------------------------------------

0 reply
petey_5150 91 Jan 08, 2008 11:47 PM

Ta quase la amigo.

guest
You may want to rate the tab now too:
select rating
Wanna post a correction for this tab? Suggest correction