Oops, an error
Loading. Please wait.

A Girl Named Greed Tab

624 views 6 this week
no commentswrite comment
1 2 3 4 5
please rate
add to favorites
launch autoscroll
font size
0
reset
how to read this tab
guitar tuner
Autoscroll
slow
fast
+/-
esc
set tempo
stop
Help us to improve Ultimate-Guitar.com Take our survey!
×
Author
Difficulty
Tuning
intermediate
C# G# C# F# A# D#
Planet Of Zeus - A Girl Named Greed

Drop C# tuning

riff-chorus

-------------------------------------------------|
------(10)//-------------------(10)//-(10h12-10)-|
-------10///--------------------10///--10h12-10--|
-------10///--------------------10///--10h12-10--|
-------------------3p0-3s5-s3--------------------|
-3s10-0------0--3h5------------0------0-----------| x4

verse 1

-------------------------------------------------------|
-------------------------------------------------------|
---5------------5-----------5------------5s7-5---------|
---3------------3-----------3--0-3b3.5-0-------7-5-3---|
-----------------------------------------------------5-|
-0----0-3b3.5-0---0-3b3.5-0----------------------------| x8

pre-chorus

---------------------------|
---------------------------|
---------------------------|
-5~------------------------|
-5~---0-3-5--0-3-5---------|
-5~---0-3-5--0-3-5---------|

chorus x4

verse 2

--------------------------------------------------------------|
--------------------------------------------------------------|
--------------------------------------------------------------|
--------------------------------------------------------------|
-3-5------------3-5------------3-5------------3s5--3-0--------|
------0-3b3.5-0------0-3b3.5-0------0-3b3.5-0----------5-3-0--| x4

pre-chorus

chorus x4

bridge

----------------------/-----------------------|
----------------------/-----------------------|
------------------5-7-/-----------------5-7---|
------------------5-7-/-----------------5-7---|
-5-5-5p3p0-(x15)--3-5-/-5-5-5p3p0-(x7)--3-5---|
----------------------/-----------------------| x2

same with 2nd guitar    end on

---------------------   ---------------------------------|
---------------------   ---------------------------------|
-----------------5-7-   ---------------------------------|
-----------(x7)--5-7-   ---------------------------------|
-8-8-8p7p0-------3-5-   --12p10s8h10p8s7h8p7s5h7p5s3h5~--|
---------------------   ---------------------------------|

interlude

-----------------------------------------------------|
-----------------------------------------------------|
-----------------------------------------------------|
-----------------------------------------------------|
-8-8-8p7p0-(x4)-10-10-10p8p0-(x4)-12-12-12p10p0-(x2)-|
-----------------------------------------------------|

--------------------------------------------------------------------|
--------------------------------------------------------------------|
--------------------------------------------------------------------|
--------------------------------------------------------------------|
-13-13-13p12p0-(x2)-15-15-15p13p0-16-16-16p15p0-17-17-17p15p0-------|(x2)
--------------------------------------------------------------------| x2


breakdown

----------------------------------------------|
----------------------------------------------|
----------------5-7-----------------5-7-------|
----------------5-7-----------------5-7-------|
-5-5-5p3p0-(x3)-3-5--5-5-5p3p0-(x3)-3-5-------|
----------------------------------------------|

----------------------------------------------|
----------------------------------------------|
-----------5-7------------5-7--5-7--5-7--5-7--|
-----------5-7------------5-7--5-7--5-7--5-7--|
-5-5-5p3p0-3-5--5-5-5p3p0-3-5--3-5--3-5--3-5--|
----------------------------------------------|

end with riff
Suggest correction
What's this?
You can suggest a correction to this tab. Community and Mods will review your correction and vote to approve or reject it.
comments
We did not receive enough feedback on this tab! Please rate:
print report bad tab
1 2 3 4 5
guest
You may want to rate the tab now too:
select rating
Please do not post tabs as comments. Select "correction" instead!