Oops, an error
Loading. Please wait.

No Tomorrow tab

version 1
version 1

Whole song

  • Here is the tab for the song "No Tomorrow" by the ... Show more

Interactive

133 views 6 this week
no commentswrite comment
1 2 3 4 5
2 more votes to show rating
add to favorites
×
Save as Personal and add changes to this tab that will be seen only by you. Learn more ›
×
You can save this tab as Personal to edit and correct it or add notes. All changes will be seen only by you. Learn more »
launch autoscroll
font size
0
reset
how to read this tab
guitar tuner
edit
Autoscroll
slow
fast
+/-
esc
set tempo
stop
About this tab version
Here is the tab for the song "No Tomorrow" by the greek band "Planet of Zeus" from their 2014 album Vigilante. The tab includes both band's guitars. Credits to darkgeo for writing a big part of this tab. Was this info helpful? Yes No
Artist: Planet of Zeus
Song: No Tomorrow
Album: Vigilante

[Intro]
D#|--------------4----------------------------|-------------------------------------|
A#|--------------5----------------------------|-------------------------------------|
F#|--------------6----------------------------|-----------9-------------------------|
C#|--------------7----------------------7--9--|--/11------7-------------------------|
G#|--------------4----------------7--9--------|-------9---9-------------------------|
C#|--4-----4-----4-------4--7--9--------------|-------------------------------------|

                                                             Played only by Guitar2.
D#|--------------4----------------------------|-------------------------------------|
A#|--------------5----------------------------|-------------------------------------|
F#|--------------6----------------------------|-----------9-----------9-------------|
C#|--------------7----------------------7--9--|--/11------7-----9/-11---11\-9-7-----|
G#|--------------4----------------7--9--------|-------9---9---------------------9---|
C#|--4-----4-----4-------4--7--9--------------|-------------------------------------|

                                                             Played only by Guitar2.
D#|--------------4----------------------------|-------------------------------------|
A#|--------------5----------------------------|-----------------5/-7----7---7\-5----|
F#|--------------6----------------------------|-----------9-----4/-6----6---6\-4--6-|
C#|--------------7----------------------7--9--|--/11------7-----------------------7-|
G#|--------------4----------------7--9--------|-------9---9-------------------------|
C#|--4-----4-----4-------4--7--9--------------|-------------------------------------|

                                                             Played only by Guitar2.
D#|--------------4----------------------------|-------------------------------------|
A#|--------------5----------------------------|-------------------------------------|
F#|--------------6----------------------------|-----------9-----9-9-9-9-9-9-9-9-----|
C#|--------------7----------------------7--9--|--/11------7-----7-7-7-7-7-7-7-7-----|
G#|--------------4----------------7--9--------|-------9---9-----9-9-9-9-9-9-9-9-----|
C#|--4-----4-----4-------4--7--9--------------|-------------------------------------|
                                                                                       (x1)
D#|-------------------------------------------|-------------------------------------|
A#|-------------------------------------------|-------------------------------------|
F#|-------------------------------------------|-------------------------------------|
C#|-------------------------------------------|----2---------------------------9--7-|
G#|-------------------------------------------|-----------------------9--9--7--9--7-|
C#|--4---4-----2--4--2--4b-----2--4--2--------|--4---4----2--4--2--7--9--9--7--9--7-|
                                                                                       (x4)

[Verse 1]
(Guitar 2: In every rest do a muted strum using delay.)
D#|---------------------------|-------------------------------------|
A#|---------------------------|-------------------------------------|
F#|---------------------------|-------------------------------------|
C#|---------------------------|---------------------7b--------------|
G#|---------------------------|---------------------7b--------------|
C#|--4-------4--4-------------|--4-------4--4-------7b--------------|
                                                                       (x5)
D#|---------------------------|-------------------------------------|
A#|---------------------------|-------------------------------------|
F#|---------------------------|-------------------------------------|
C#|---------------------------|-----------------------------2--3--4-|
G#|---------------------------|--------------------2--3--4----------|
C#|--4-------4--4-------------|--4-------4--4-----------------------|

        Played only by Guitar2.        Played only by Guitar2.
D#|---------------------------|-------------------------------------|
A#|---------------------------|-------------------------------------|
F#|--7------------9/-11-------|--7----------------------------------|
C#|--7-------9\-7-------11\-9-|--7------------7--9--9b-9b-9b--------|
G#|--5------------------------|--9-------7--9-----------------------|
C#|---------------------------|-------------------------------------|
                                                                       (x1)

[Chorus 1]
D#|--------------------------------------|--------------------------------------|
A#|--------------------------------------|--------------------------------------|
F#|--------------------------------------|--------------------------------------|
C#|--4-----------------------------------|--------------------------------------|
G#|--4-----------------7-----------------|--9----9--9-----9--7------------------|
C#|--4----4--2--4--/9--7----7--6--7--/11-|--9----9--9--11-------11--9--7--9-----|
                                                                                   (x4)

[Verse 2]
(Guitar 1) 
D#|---------------------------|-------------------------------------|
A#|---------------------------|-------------------------------------|
F#|---------------------------|-------------------------------------|
C#|---------------------------|---------------------7b--------------|
G#|---------------------------|---------------------7b--------------|
C#|--4-------4--4-------------|--4-------4--4-------7b--------------|
                                                                       (x5)
D#|---------------------------|-------------------------------------|
A#|---------------------------|-------------------------------------|
F#|---------------------------|-------------------------------------|
C#|---------------------------|-----------------------------2--3--4-|
G#|---------------------------|--------------------2--3--4----------|
C#|--4-------4--4-------------|--4-------4--4-----------------------|

D#|---------------------------|-------------------------------------|
A#|---------------------------|-------------------------------------|
F#|--7------------------------|--9----------------------------------|
C#|--7------------------------|--9----------------------------------|
G#|--5------------------------|--7----------------------------------|
C#|---------------------------|-------------------------------------|
                                                                       (x1)

(Guitar 2)
D#|---------------------------|-------------------------------------|
A#|---------------------------|-------------------------------------|
F#|---------------------------|-------------------------------------|
C#|---------------------------|-------------------7--9b-------------|
G#|---------------------------|-------------7/-9--------------------|
C#|---------------------------|-------------------------------------|

D#|---------------------------|-------------------------------------|
A#|---------------------------|-------------------------------------|
F#|--------------9---9--------|-------------------------------------|
C#|--------------9---9b-------|-------------9br-p7----7--9----------|
G#|---------------------------|--------------------9--------9-------|
C#|---------------------------|-------------------------------------|

D#|---------------------------|-------------------------------------|
A#|---------------------------|-------------------------------------|
F#|---------------------------|-------------------------------------|
C#|---------------------------|-------------------------------------|
G#|--(9)----------------------|-------------------------------------|
C#|---------------------------|-------------------------------------|

D#|---------------------------|-------------------------------------|
A#|---------------------------|-------------------------------------|
F#|---------------------------|-------------------------------------|
C#|---------------------------|-------------------------------------|
G#|---------------------------|-------------------------------------|
C#|--9b-----------------------|-------------------------------------|

D#|---------------------------|-------------------------------------|
A#|---------------------------|-------------------------------------|
F#|---------------------------|-------------------------------------|
C#|---------------------------|-------------------------------------|
G#|---------------------------|-------------------------------------|
C#|---------------------------|-------------------------------------|

D#|---------------------------|-------------------------------------|
A#|---------------------------|-------------------------------------|
F#|---------------------------|-------------------------------------|
C#|---------------------------|-----------------------------2--3--4-|
G#|---------------------------|--------------------2--3--4----------|
C#|---------------------------|-------------------------------------|

D#|---------------------------|-------------------------------------|
A#|---------------------------|-------------------------------------|
F#|--7------------9/-11-------|--7----------------------------------|
C#|--7-------9\-7-------11\-9-|--7------------7--9--9b-9b-9b--------|
G#|--5------------------------|--9-------7--9-----------------------|
C#|---------------------------|-------------------------------------|
                                                                       (x1)

[Chorus 2]
D#|--------------------------------------|--------------------------------------|
A#|--------------------------------------|--------------------------------------|
F#|--------------------------------------|--------------------------------------|
C#|--4-----------------------------------|--------------------------------------|
G#|--4-----------------7-----------------|--9----9--9-----9--7------------------|
C#|--4----4--2--4--/9--7----7--6--7--/11-|--9----9--9--11-------11--9--7--9-----|
                                                                                   (x3)
D#|--------------------------------------|--------------------------------------|
A#|--------------------------------------|--------------------------------------|
F#|--------------------------------------|--------------------------------------|
C#|--4-----------------------------------|----------------7--6------------------|
G#|--4-----------------7-----------------|--9----9--9-----9--7--7---6--7--8-----|
C#|--4----4--2--4--/9--7----7--6--7--/11-|--9----9--9--11-------11--9--7--8-----|
                                                                                   (x1)

[Bridge]
D#|----------------------------------|-------------------------------------------|
A#|----------------------------------|-------------------------------------------|
F#|----------------------------------|-------------------------------------------|
C#|--9--9----------------------------|-------------------------------------------|
G#|--9--9----7--9--7--9b----7--9--7--|--9--/11--\9----7--9--7--------------------|
C#|--9--9----7--9--7--9b----7--9--7--|--9--/11--\9----7--9--7--11--9--7--9--7--2-|

D#|----------------------------------|-------------------------------------------|
A#|----------------------------------|-------------------------------------------|
F#|----------------------------------|-------------------------------------------|
C#|--4--4----------------------------|----2--------------------------------------|
G#|--4--4----2--4--2--4b----2--4--2--|--4---4----2--4--2-------------------------|
C#|--4--4----2--4--2--4b----2--4--2--|--4---4----2--4--2--4--2--4--7--4--7-------|
                                                                                    (x2)

D#|----------------------------------|-------------------------------------------|
A#|----------------------------------|-------------------------------------------|
F#|----------------------------------|-------------------------------------------|
C#|--9--9----------------------------|-------------------------------------------|
G#|--9--9----7--9--7--9b----7--9--7--|--9--/11--\9----7--9--7--------------------|
C#|--9--9----7--9--7--9b----7--9--7--|--9--/11--\9----7--9--7--11--9--7----------|
                                                                                    (x1)

[Solo]
(Guitar 1)
D#|--------------4----------------------------|---------------------------------------|
A#|--------------5----------------------------|---------------------------------------|
F#|--------------6----------------------------|-----------9---------------------------|
C#|--------------7----------------------7--9--|--/11------7---------------------------|
G#|--------------4----------------7--9--------|-------9---9---------------------------|
C#|--4-----4-----4-------4--7--9--------------|---------------------------------------|
                                                                                         (x4)
(Guitar 2)
D#|----------4-----------------------------------|------------------------------------|
A#|----------5-----------------------------------|------------------------------------|
F#|----------6-----------------------------------|-----------------------9--9---------|
C#|----------7----------------------7--9---------|--9b------7--9-----/11------11------|
G#|----------4----------------7--9---------------|-------9----------------------------|
C#|--4---4---4-------4--7--9---------------------|------------------------------------|

D#|----------------------------------------------|------------------------------------|
A#|-------------------------------------------10-|--12b------10-12-----------10-12-10-|
F#|--9-/11~-------9--9------11br--9----9--11-----|--------11-------11----/11----------|
C#|----------/11--------11----------11-----------|------------------------------------|
G#|----------------------------------------------|------------------------------------|
C#|----------------------------------------------|------------------------------------|

D#|------12--12-----12--12-----12--12-----12--12--------------------------------------|
A#|--12b--------12b--------12b--------12b--------12br-----10--12----------------------|
F#|---------------------------------------------------11------------------------------|
C#|-----------------------------------------------------------------------------------|
G#|-----------------------------------------------------------------------------------|
C#|-----------------------------------------------------------------------------------|

D#|------12--12-----12--12-----12--12-----12--12--------------------------------------|
A#|--12b--------12b--------12b--------12b--------12h10--------------------------------|
F#|----------------------------------------------------11---/11-----------------------|
C#|-----------------------------------------------------------------------------------|
G#|-----------------------------------------------------------------------------------|
C#|-----------------------------------------------------------------------------------|

D#|--------------------------------------------------9--14--12b-----------------------|
A#|------10--10------12--12------14---------10---12b----------------------------------|
F#|--/11---------/13---------/14-----9h-11--------------------------------------------|
C#|-----------------------------------------------------------------------------------|
G#|-----------------------------------------------------------------------------------|
C#|-----------------------------------------------------------------------------------|
                                                                                         (x1)

[Outro]
(Guitar1)
D#|--------------4----------------------------|-------------------------------------|
A#|--------------5----------------------------|-------------------------------------|
F#|--------------6----------------------------|--------7------------9--9------------|
C#|--------------7----------------------------|--------7------------9--9------------|
G#|--------------4----------------7--9--------|--5-----5------------7--7------------|
C#|--4-----4-----4-------4--7--9--------7--9--|-----0-------------------------------|
                                                                                       (x3)
(Guitar 2)                                                                                      
D#|--------------4----------------------------|-------------------------------------|
A#|--------------5----------------------------|-------------------------------------|
F#|--------------6----------------------------|--------7------------9--9------------|
C#|--------------7----------------------------|--------7------------9--9------------|
G#|--------------4----------------7--9--------|--5-----5------------7--7------------|
C#|--------4-----4-------4--7--9--------7--9--|-----0-------------------------------|

D#|--------------4----------------------------|-------------------------------------|
A#|--------------5----------------------------|-------------------------------------|
F#|--------------6----------------------------|--------7----------------------------|
C#|--------------7----------------------------|--------7----------7-7-----9-9-------|
G#|--------------4----------------7--9--------|--5-----5-------/9-----/11------11\--|
C#|--4-----4-----4-------4--7--9--------7--9--|-----0-------------------------------|
                                                                                      
D#|--------------4----------------------------|-------------------------------------|
A#|--------------5----------------------------|-------------------------------------|
F#|--------------6----------------------------|--------7------------9--9------------|
C#|--------------7----------------------------|--------7------------9--9------------|
G#|--------------4----------------7--9--------|--5-----5------------7--7------------|
C#|--4-----4-----4-------4--7--9--------7--9--|-----0-------------------------------|
                                                                                       (x1)

(Guitar 1 + Guitar 2)
D#|--------------4----------------------------|-------------------------------------|
A#|--------------5----------------------------|-------------------------------------|
F#|--------------6----------------------------|--------7----------------------------|
C#|--------------7----------------------------|--------7----------------------------|
G#|--------------4----------------7--9--------|--5-----5----------------------------|
C#|--4-----4-----4-------4--7--9--------7--9--|-----0-------------------------------|
                                                             
                                                             ^
D#|---------------------------|---------------------------|--4----------------------|
A#|---------------------------|---------------------------|--5----------------------|
F#|--7------------------------|--9------------------------|--6----------------------|
C#|--7------------------------|--9------------------------|--4----------------------|
G#|--5------------------------|--7------------------------|--4----------------------|
C#|---------------------------|---------------------------|--4----------------------|
                                                                                       (x1)


************************************

|(n)  Ghost note
| h   Hammer-on
| p   Pull-off
| b   Bend
| br  Bend release
| /   Slide up
| \   Slide down
| ~   Vibrato
| ^   Brush down

************************************
Suggest correction
Creating personal tab
Creating personal tab
You can edit any tab online and save it as your Personal.

You can edit, replace or remove any tab part or add personal notes – all changes will be seen only by you.

Personal tabs can be accessed anytime from any device, even offline.
Learn more »
Give kudos to tab author, rate the tab!
1 2 3 4 5
comments
print report bad tab
guest
You may want to rate the tab now too:
select rating
Wanna post a correction for this tab? Suggest correction