Oops, an error
Loading. Please wait.

Put Your Hands Up Bass Tab

1,899 views 9 this week
no commentswrite comment
1 2 3 4 5
3 more votes to show rating
add to favorites
launch autoscroll
font size
0
reset
guitar tuner
Autoscroll
slow
fast
+/-
esc
set tempo
stop
Help us to improve Ultimate-Guitar.com Take our survey!
×
Author
when the song first comes on there is an electronic riff going. the bass comes in 
following the same tune after to times.during the breakdown the guitars play the riff 12 times 
before the bass riff. its a c sharp there if you dont have a 5 string.




verse
g-------------------------------------------------------------------------|
d-------------------------------------------------------------------------|
a--------------44---------------------------------------------------------|
e---66-----44------22-----------------------------------------------------|
b-------------------------------------------------------------------------|

pre chorus same

chorus
g-------------------------------------------------------------------------|
d-------------------------------------------------------------------------|
a---------------44--------------------------------------------------------|
e----66-----22-----44-----------------------------------------------------|
b-------------------------------------------------------------------------|

breakdown
g-------------------------------------------------------------------------|
d----------------------2h4/6----------------------------------------------|
a-----------------4444----------------------------------------------------|
e-------------------------------------------------------------------------|
b--2222---(12x)-----------------------------------------------------------|
Suggest correction
Give kudos to tab author, rate the tab!
1 2 3 4 5
comments
print report bad tab
guest
You may want to rate the tab now too:
select rating
Wanna post a correction for this tab? Suggest correction