Oops, an error
Loading. Please wait.

All For Love Bass Tab

version 1
version 1

Whole song

Interactive

14,844 views 1 this week
no commentswrite comment
1 2 3 4 5
2 more votes to show rating
add to favorites
launch autoscroll
font size
0
reset
guitar tuner
Autoscroll
slow
fast
+/-
esc
set tempo
stop
Help us to improve Ultimate-Guitar.com Take our survey!
×
Author
Difficulty
intermediate
-------------------------------------------------------------------------------
			     All For Love - Planet Shakers
-------------------------------------------------------------------------------
this is my first tab so i dont no how it is but im pretty sure its 100%
Tabbed By : Matt De Wit
e-mail:mattyd_401@hotmail.com 

Tuning:Standard
main riff 
x2
G|-----------------------------------------------|
D|--------------------666------77767-------------|
A|------------77744------77-555-----222/5555-----|
E|----14\2-222-----555---------------------------|
verse
x1
G|-----------------------------------------------|
D|--------------666------77767-------------------|
A|------77744------77-555-----222/555-5~---------|
E|---222-----555---------------------------------|

G|-----------------------------------------------|
D|-------------666----------------------666------|
A|-----77744------77--55~5\2~---77744------77----|
E|--555-----555--------------555-----555---------|

G|-----------------------------------------------|
D|-----------------------------------------------|
A|---77-7/99-9\55-5-----------------555555555555-|
E|-----------------55-5/777777777777-------------|
chorus
G|-------------------------------------------------------------------------|
D|-------------------------------------------------------------------------|
A|------------------5555555555555555------------------5555555555555555-----|
E|-22222222/55555555-----------------22222222/55555555---------------------|
...and the love that you gave... 
G|-----------------------------------------------------|
D|-----------------------------------------------------|
A|---777777/999999\555555-----------------555555555555-|
E|-----------------------55-5/777777777777-------------|
its all for love...
x1
G|-----------------------------------------------|
D|-----------------------------------------------|
A|--------------------555-----222----------------|
E|---222-----555---------------------------------|
riff
x2
G|-----------------------------------------------|
D|--------------666------77767-------------------|
A|------77744------77-555-----222/55555----------|
E|---222-----555---------------------------------|
bridge
G|-----------------------------------------------|
D|-----------------------------------------------|
A|---5-----2-----------------5-----2-------------|
E|---------------2-----5------------------2------|

G|------------------------------------------------------------------------|
D|------------------------------------------------------------------------|
A|--55555555\222222222-------------------55555555\22222222----------------|
E|--------------------222222222/555555555-----------------2222222222222222|

| /  slide up
| \  slide down
| h  hammer-on
| p  pull-off
| ~  vibrato
| +  harmonic
| x  Mute note
===============================================================================
Suggest correction
Give kudos to tab author, rate the tab!
1 2 3 4 5
comments
print report bad tab
guest
You may want to rate the tab now too:
select rating
Wanna post a correction for this tab? Suggest correction