Oops, an error
Loading. Please wait.

All The Praise Bass Tab

version 1
version 1

Whole song

Interactive

1,207 views 3 this week
no commentswrite comment
1 2 3 4 5
please rate
add to favorites
launch autoscroll
font size
0
reset
guitar tuner
Tab Pro tools
  • play this tab
  • loop segment
  • change instrument
  • show fretboard
  • metronome
×
Best way to learn
"All The Praise"
Autoscroll
slow
fast
+/-
esc
set tempo
stop
Contributor
Difficulty
Tuning
intermediate
D A D G B E
This is my tab of All The Praise by Planetshakers,
this is how i play it at my Youth and it sounds great when i play it with the song.
If you find an mistakes let me know and i will fix them
God Bless.

Intro/Riff
G|------------------------|
D|------------------------|
A|-------5~--4-0---55420--| x4
D|-4-2-4--------000-------|

Verse
G|-----------------------------------------------|
D|-----------------------------------------------|
A|-------------0~-0~-0~-0~-5~-5~-5~-2~-2~-2~-2~--|
D|-4~-4~-4~-4~-----------------------------------|

Riff x2

Verse

Pre Chorus                x3
G|--------------------------|--------------------------|
D|--------------------------|--------------------------|
A|-------------0~-0~-2~-2~--|-5.-5.-5.-5.-7.-7.-8.-8.--|
D|-4~-4~-6~-6~--------------|--------------------------|

Chorus                                       ---|
G|--------------------------------------------| |
D|--------------------------------------------| | 
A|------------------0000000000000000----------| |
D|-4444444444446666---------------------------| |
                                                | x2
G|--------------------------------------------| |
D|--------------------------------------------| |
A|-5555555555555555-777777777777-8.-8.-8.-8.--| |
D|--------------------------------------------| |
                                             ---|
Riff x2

Verse

Riff x2

Verse

Riff x2

Pre Chorus

Chorus 

Riff x4

Bridge
G|-----------------------------------------7------7-----------------|
D|-------------------------7------7---------------------------------|
A|-------------------0.0.00-0-0.00-0-5.5.55-5-5.55-5-7.7.77-8.8.8~--|
D|-4.4.424.-4424/7\4------------------------------------------------|

G|-----------------------------------------7------7--------------------|
D|-------------------------7------7------------------------------------|
A|-------------------0.0.00-0-0.00-0-5.5.55-5-5.55-5-77777777-88888888-|
D|-4.4.424.-4424/7\4---------------------------------------------------|


G|---------------------------------------------------------------------|
D|---------------------------------------------------------------------|
A|------------------0000000000000000-5555555555555555-7777777777777777-|
D|-4444444444444444----------------------------------------------------|

G|-------------------------------------------|
D|-------------------------------------------|
A|-8~~----0~-5~-7777777777777777-888888888.--|
D|-------------------------------------------|

Chorus
G|--------------------------------------------| 
D|--------------------------------------------|  
A|------------------0000000000000000----------| 
D|-4444444444446666---------------------------| 
                                                
G|--------------------------------------------| 
D|--------------------------------------------| 
A|-5555555555555555-777777777777-8.-8.-8.-8.--| 
D|--------------------------------------------|

Outro(Riff) x4    End on F#
comments
We did not receive enough feedback on this tab! Please rate:
print report bad tab
1 2 3 4 5
I want to post or [tab]
guest
You may want to rate the tab now too:
select rating
Please do not post tabs as comments. Select "correction" instead!