Oops, an error
Loading. Please wait.

All The Praise Tab

version 1
version 1

Whole song

Interactive

4,434 views 15 this week
no commentswrite comment
1 2 3 4 5
please rate
add to favorites
launch autoscroll
font size
0
reset
how to read this tab
guitar tuner
Autoscroll
slow
fast
+/-
esc
set tempo
stop
Help us to improve Ultimate-Guitar.com Take our survey!
×
Difficulty
novice
-------------------------------------------------------------------------------
                             All the Praise - Planetshakers
-------------------------------------------------------------------------------
Tabbed by:Taylor Blackstock
Email:dont_cri_emo_kid@hotmail.com

Tuning: standard

Intro

Guitar one
e|-------------------------------------------|
B|-------------------------------------------|
G|-------------------------------------------|
D|--6-6-6-------------2-2-2--2-1-------------|
A|--6-6-6--7-6--------2-2-2------2-1---------|
E|--4-4-4------7------0-0-0------------------|------X2

Pre-Verse
Guitar one
e|-------------------------------------------------------------------------|
B|-------------------------------------------------------------------------|
G|-------------------------------------------------------------------------|
D|--6-6-6-------------2-2-2--2-1-------6-6-6---------2-2-2--2-1------------|
A|--6-6-6--7-6--------2-2-2------2-1---6-6-6-7-6-----2-2-2------2-1--------|
E|--4-4-4------7------0-0-0------------4-4-4-----7---0-0-0-----------------|------X2

Guitar two
e|--------------------------------------------------------------------------|
B|------------------------------------------------------------------7-7-----|
G|---------4-4-4--------6-6-6-8-8-8-8---------4-4-4-------6-6-6-8-8---------|
D|---6-4-6--------6-4-6-----------------6-4-6-------6-4-6-------------------|
A|--------------------------------------------------------------------------|
E|--------------------------------------------------------------------------|-----X2

Verse
Guitar one
e|----------------------------------------|
B|----------------------------------------|
G|------------4=----------------6xxxxxx---|
D|---6=-------4=--------2=------6xxxxxx---|
A|---6=-------2=--------2=------4xxxxxx---|
E|---4=-----------------0=----------------|

Guitar one
e|-------------------------------------------------------------------------|
B|-------------------------------------------------------------------------|
G|-------------------------------------------------------------------------|
D|--6-6-6-------------2-2-2--2-1-------6-6-6---------2-2-2--2-1------------|
A|--6-6-6--7-6--------2-2-2------2-1---6-6-6-7-6-----2-2-2------2-1--------|
E|--4-4-4------7------0-0-0------------4-4-4-----7---0-0-0-----------------|

Guitar two
e|--------------------------------------------------------------------------|
B|------------------------------------------------------------------7-7-----|
G|---------4-4-4--------6-6-6-8-8-8-8---------4-4-4-------6-6-6-8-8---------|
D|---6-4-6--------6-4-6-----------------6-4-6-------6-4-6-------------------|
A|--------------------------------------------------------------------------|
E|--------------------------------------------------------------------------|

Guitar one
e|---------------------------------------|
B|---------------------------------------|
G|------------4=----------------6xxxxx---|
D|---6=-------4=--------2=------6xxxxx---|
A|---6=-------2=--------2=------4xxxxx---|
E|---4=-----------------0=---------------|

Guitar one
e|-------------------------------------------------------------------------|
B|-------------------------------------------------------------------------|
G|-------------------------------------------------------------------------|
D|--6-6-6-------------2-2-2--2-1-------6-6-6---------2-2-2--2-1------------|
A|--6-6-6--7-6--------2-2-2------2-1---6-6-6-7-6-----2-2-2------2-1--------|
E|--4-4-4------7------0-0-0------------4-4-4-----7---0-0-0-----------------|

Guitar two
e|--------------------------------------------------------------------------|
B|------------------------------------------------------------------7-7-----|
G|---------4-4-4--------6-6-6-8-8-8-8---------4-4-4-------6-6-6-8-8---------|
D|---6-4-6--------6-4-6-----------------6-4-6-------6-4-6-------------------|
A|--------------------------------------------------------------------------|
E|--------------------------------------------------------------------------|

Pre-Chorus
Guitar one
e|------------------------------------------|              -----------------------|
B|------------------------------------------|              -----------------------|
G|------------------------------------------|Play 3 times, -----------------------|
D|--6-6-6-6--8-8-8-8--9-9-9-9--11-11-11-11--|then play     ---2-2-2-2--4-4-4-4----|
A|--6-6-6-6--8-8-8-8--9-9-9-9--11-11-11-11--|              ---2-2-2-2--4-4-4-4----|
E|--4-4-4-4--6-6-6-6--7-7-7-7--9--9--9--9---|              ---0-0-0-0--2-2-2-2----|

Chorus
Guitar one & two
e|--------------------------------------------------------------------------|
B|--------------------------------------------------------------------------|
G|------------------------------------999999999999999-----------------------|
D|---66666666666-8888-999999999999999-999999999999999-4-4-4-4-(5-5-5-5)?----|
A|---66666666666-8888-999999999999999-777777777777777-4-4-4-4-(5-5-5-5)?----|
E|---44444444444-6666-777777777777777-----------------2-2-2-2-(3-3-3-3)?----|------X2

Pre-Verse
Guitar one
e|-------------------------------------------------------------------------|
B|-------------------------------------------------------------------------|
G|-------------------------------------------------------------------------|
D|--6-6-6-------------2-2-2--2-1-------6-6-6---------2-2-2--2-1------------|
A|--6-6-6--7-6--------2-2-2------2-1---6-6-6-7-6-----2-2-2------2-1--------|
E|--4-4-4------7------0-0-0------------4-4-4-----7---0-0-0-----------------|

Guitar two
e|--------------------------------------------------------------------------|
B|------------------------------------------------------------------7-7-----|
G|---------4-4-4--------6-6-6-8-8-8-8---------4-4-4-------6-6-6-8-8---------|
D|---6-4-6--------6-4-6-----------------6-4-6-------6-4-6-------------------|
A|--------------------------------------------------------------------------|
E|--------------------------------------------------------------------------|

Verse
Guitar one
e|----------------------------------------|
B|----------------------------------------|
G|------------4=----------------6xxxxxx---|
D|---6=-------4=--------2=------6xxxxxx---|
A|---6=-------2=--------2=------4xxxxxx---|
E|---4=-----------------0=----------------|

Guitar one
e|-------------------------------------------------------------------------|
B|-------------------------------------------------------------------------|
G|-------------------------------------------------------------------------|
D|--6-6-6-------------2-2-2--2-1-------6-6-6---------2-2-2--2-1------------|
A|--6-6-6--7-6--------2-2-2------2-1---6-6-6-7-6-----2-2-2------2-1--------|
E|--4-4-4------7------0-0-0------------4-4-4-----7---0-0-0-----------------|

Guitar two
e|--------------------------------------------------------------------------|
B|------------------------------------------------------------------7-7-----|
G|---------4-4-4--------6-6-6-8-8-8-8---------4-4-4-------6-6-6-8-8---------|
D|---6-4-6--------6-4-6-----------------6-4-6-------6-4-6-------------------|
A|--------------------------------------------------------------------------|
E|--------------------------------------------------------------------------|

Guitar one
e|---------------------------------------|
B|---------------------------------------|
G|------------4=----------------6xxxxx---|
D|---6=-------4=--------2=------6xxxxx---|
A|---6=-------2=--------2=------4xxxxx---|
E|---4=-----------------0=---------------|

e|-------------------------------------------------------------------------|
B|-------------------------------------------------------------------------|
G|-------------------------------------------------------------------------|
D|--6-6-6-------------2-2-2--2-1-------6-6-6---------2-2-2--2-1------------|
A|--6-6-6--7-6--------2-2-2------2-1---6-6-6-7-6-----2-2-2------2-1--------|
E|--4-4-4------7------0-0-0------------4-4-4-----7---0-0-0-----------------|

Guitar two
e|--------------------------------------------------------------------------|
B|------------------------------------------------------------------7-7-----|
G|---------4-4-4--------6-6-6-8-8-8-8---------4-4-4-------6-6-6-8-8---------|
D|---6-4-6--------6-4-6-----------------6-4-6-------6-4-6-------------------|
A|--------------------------------------------------------------------------|
E|--------------------------------------------------------------------------|


Pre-Chorus
Guitar one
e|------------------------------------------|              -----------------------|
B|------------------------------------------|              -----------------------|
G|------------------------------------------|Play 3 times, -----------------------|
D|--6-6-6-6--8-8-8-8--9-9-9-9--11-11-11-11--|then play     ---2-2-2-2--4-4-4-4----|
A|--6-6-6-6--8-8-8-8--9-9-9-9--11-11-11-11--|              ---2-2-2-2--4-4-4-4----|
E|--4-4-4-4--6-6-6-6--7-7-7-7--9--9--9--9---|              ---0-0-0-0--2-2-2-2----|

Chorus
Guitar one & two
e|--------------------------------------------------------------------------|
B|--------------------------------------------------------------------------|
G|------------------------------------999999999999999-----------------------|
D|---66666666666-8888-999999999999999-999999999999999-4-4-4-4-(5-5-5-5)?----|
A|---66666666666-8888-999999999999999-777777777777777-4-4-4-4-(5-5-5-5)?----|
E|---44444444444-6666-777777777777777-----------------2-2-2-2-(3-3-3-3)?----|------X2

Pre-Verse
Guitar one
e|-------------------------------------------------------------------------|
B|-------------------------------------------------------------------------|
G|-------------------------------------------------------------------------|
D|--6-6-6-------------2-2-2--2-1-------6-6-6---------2-2-2--2-1------------|
A|--6-6-6--7-6--------2-2-2------2-1---6-6-6-7-6-----2-2-2------2-1--------|
E|--4-4-4------7------0-0-0------------4-4-4-----7---0-0-0-----------------|-----X2

Guitar two
e|--------------------------------------------------------------------------|
B|------------------------------------------------------------------7-7-----|
G|---------4-4-4--------6-6-6-8-8-8-8---------4-4-4-------6-6-6-8-8---------|
D|---6-4-6--------6-4-6-----------------6-4-6-------6-4-6-------------------|
A|--------------------------------------------------------------------------|
E|--------------------------------------------------------------------------|-----X2

Bridge
Bass plays the first bar of bridge.

Guitar one-2nd bar
e|--------------------------------------------------------------------------|
B|--------------------------------------------------------------------------|
G|-----------------------------------9-9-9-9-9-9-9-9------------------------|
D|-6-6-6-6-6-6-6-6--9-9-9-9-9-9-9-9--9-9-9-9-9-9-9-9--4444444-5555555-------|
A|-6-6-6-6-6-6-6-6--9-9-9-9-9-9-9-9--7-7-7-7-7-7-7-7--4444444-5555555-------|
E|-4-4-4-4-4-4-4-4--7-7-7-7-7-7-7-7-------------------2222222-3333333-------|

Guitar one & two
e|--------------------------------------------------------------------------|
B|--------------------------------------------------------------------------|
G|------------------------------------999999999999999-----------------------|
D|---666666666666666--999999999999999-999999999999999-4-4-4-4--5-5-5-5------|
A|---666666666666666--999999999999999-777777777777777-4-4-4-4--5-5-5-5------|
E|---444444444444444--777777777777777-----------------2-2-2-2--3-3-3-3------|

Guitar one
e|--------------------------------------------------------------------------|
B|--------------------------------------------------------------------------|
G|---------------------9999999999999999-------------------------------------|
D|--6=----8=--9=-------9999999999999999-44444444-5--------------------------|
A|--6=----8=--9=-------7777777777777777-44444444-5--------------------------|
E|--4=----6=--7=------------------------22222222-3--------------------------|

Final Chorus
Guitar one & two
e|--------------------------------------------------------------------------|
B|--------------------------------------------------------------------------|
G|------------------------------------999999999999999-----------------------|
D|---666666666666666--999999999999999-999999999999999-4-4-4-4--5-5-5-5------|
A|---666666666666666--999999999999999-777777777777777-4-4-4-4--5-5-5-5------|
E|---444444444444444--777777777777777-----------------2-2-2-2--3-3-3-3------|

Outro
Guitar one
e|-------------------------------------------------------------------------|
B|-------------------------------------------------------------------------|
G|-------------------------------------------------------------------------|
D|--6-6-6-------------2-2-2--2-1-------6-6-6---------2-2-2--2-1------------|
A|--6-6-6--7-6--------2-2-2------2-1---6-6-6-7-6-----2-2-2------2-1--------|
E|--4-4-4------7------0-0-0------------4-4-4-----7---0-0-0-----------------|------X2

Guitar two
e|--------------------------------------------------------------------------|
B|------------------------------------------------------------------7-7-----|
G|---------4-4-4--------6-6-6-8-8-8-8---------4-4-4-------6-6-6-8-8---------|
D|---6-4-6--------6-4-6-----------------6-4-6-------6-4-6-------------------|
A|--------------------------------------------------------------------------|
E|--------------------------------------------------------------------------|-----X2

Finish on
e|----------|
B|----------|
G|----------|
D|--6=~-----|
A|--6=~-----|
E|--4=~-----|

These guys are awesome. this song is my favourite, as well as All for love. hope you 
like it. I'm Pretty sure that 90% of the tab is correct. Pls Rate!!

************************************

| /   slide up
| \   slide down
| h   hammer-on
| p   pull-off
| ~   vibrato
| +   harmonic
| x   Mute note
| b   Bend
| pb  Pre-bend
| br  Bend release
| pbr Pre-bend release
| brb Bend release bend
| =   let note ring

************************************
Suggest correction
Give kudos to tab author, rate the tab!
1 2 3 4 5
comments
print report bad tab
guest
You may want to rate the tab now too:
select rating
Please do not post tabs as comments. Select "correction" instead!