Oops, an error
Loading. Please wait.

Always And Forever Chords

version 3
version 3

Whole song

1,400 views 1 this week
no commentswrite comment
1 2 3 4 5
3 more votes to show rating
add to favorites
launch autoscroll
font size
0
reset
transpose
0
reset
simplify chords
display chords
guitar tuner
Autoscroll
slow
fast
+/-
esc
set tempo
stop
Help us to improve Ultimate-Guitar.com Take our survey!
×
hi sa lahat ng mga fans namin mahal namin kayong lahat! nais naming malaman niyo na
wala kayong mga fans wala rin kami dito ngayon WE LOVE YOU ALL!nais ko rin pung malaman
na kami ang original ng kantang to kaya kami ang tama sa lahat ng nag submit ng tabs 
sa always and forever na binili samin ng planet shakers! BY:WHALAH BAND
intro:
E----------------------------------------+
B----------------------------------------+
G----------------------------------------+
D----------------------------------------+
A--0--3-----------0--7--6--5--3—[5]------+
E--------5--3--5-------------------------+

E----------------------------------------+
B----------------------------------------+
G----------------------------------------+
D----------------------------------------+
A--0--3-----------0--7--6--5--3—[0]------+
E--------5--3--5-------------------------+

Verse:
C
There's nothing better
G
Than living for You
A
Than saving my world with You
F
There's nothing better
C
Than praising Your name
G
And lifting my praise
Am7
I want to spend forever
F
Standing in Your presence


PreChorus:
                    A
And I wanna show You
          F        G
What You mean to me God
Am7 F        G        C  G/B
I give You my whole life
Am7       F         G   A
And I've got to tell You
            F        G
That I am Yours forever
Am7     F         G       C  G/B
Lord I give You my whole life

C                        G
Jesus I will live for You
                  A
In everything I do
                     F
I'm holding on to You
                         C
Always always and forever
                                 Bb/D
And when my world is falling down
                      F
In You I will be found
                              C/E
I'm staying in Your arms today
 F            G          C  G  A  F
Always always and forever

ADLIB:
--------------------------------------------------------------------------|
--------------------------------------------------------------------------|
-----4-5-7-9-11-12-14-12-14s16-16-16-14-12-14-12-11-12-11----11-12s14-14--|
-5-7------------------------------------------------------12--------------|
--------------------------------------------------------------------------|
--------------------------------------------------------------------------|

----------------------------------------------------------------------------|
-15-13-12-15-13-12----------------------------------------------------------|
-------------------14-12-14-12-11s12-------11-12-14-12-11----------11-12-14-|
-------------------------------------12-14----------------14-12-14----------|
----------------------------------------------------------------------------|
----------------------------------------------------------------------------|

===============3x=================
----------------------------------|-------------12-10-9-10-9-7-8------------|
-15-13-12-13----15-13-12----------|-----------------------------------------|
-------------12----------12-12s14-|-14-14s16-16-----------------------------|
----------------------------------|-----------------------------------------|
----------------------------------|-----------------------------------------|
----------------------------------|-----------------------------------------|

Bridge:

 C/E          G
Always and forever
F       C/E          G
Always always and forever
F       C/E          G
Always always and forever
F       C/E          G
Always always and forever
F       C/E          G
Always always and forever
F       C/E          G
Always always and forever
F       C/E          G   F
Always always and forever

maraming maraming salamat sa inyong suporta sana mag enjoy kayo sa pagtogtog nitong
kantang sinolat namin tsaka sana bumili pa kayo ng mga album namin thats all im fine thank
thats all FOLKS!
Suggest correction
Give kudos to tab author, rate the tab!
1 2 3 4 5
comments
print report bad tab
guest
You may want to rate the tab now too:
select rating
Wanna post a correction for this tab? Suggest correction