Oops, an error
Loading. Please wait.

Endless Praise tab

version 1
version 1

Whole song

Interactive

3,538 views 102 this week
no commentswrite comment
1 2 3 4 5
3 more votes to show rating
add to favorites
×
Save as Personal and add changes to this tab that will be seen only by you. Learn more ›
×
You can save this tab as Personal to edit and correct it or add notes. All changes will be seen only by you. Learn more »
launch autoscroll
font size
0
reset
how to read this tab
guitar tuner
edit
Autoscroll
slow
fast
+/-
esc
set tempo
stop
[Intro]

e|-----------------------------------------------------------------------|
B|-7-x-7-x-7-x-7-x-7h8---------------------------------------------------| 2x
G|-7-x-7-x-7-x-7-x-7-----------------------------------------------------|
D|-----------------------------------------------------------------------|
A|-----------------------------------------------------------------------|
E|-----------------------------------------------------------------------|


[Verse]

e|-----------------------------------------------------------------------|
B|-7-x-7-x-7-x-7-x-7h8---------------------------------------------------| 2x
G|-7-x-7-x-7-x-7-x-7-----------------------------------------------------|
D|-----------------------------------------------------------------------|
A|-----------------------------------------------------------------------|
E|-----------------------------------------------------------------------|


[Pre-Chorus]

e|------------------------------------------------------------------------|
B|-10-10-10-10-10---------------------------------------------------------|
G|-9--9--9--9--9----------------------------------------------------------|
D|-7--7--7--7--7----------------------------------------------------------|
A|------------------------------------------------------------------------|
E|------------------------------------------------------------------------|

e|------------------------------------------------------------------------|
B|-12-12-12-12-12---------------------------------------------------------|
G|-11-11-11-11-11---------------------------------------------------------|
D|-9--9--9--9--9----------------------------------------------------------|
A|------------------------------------------------------------------------|
E|------------------------------------------------------------------------|

e|------------------------------------------------------------------------|
B|-8-8-8---7-7------------------------------------------------------------|
G|-7-7-7---7-7------------------------------------------------------------|
D|-5-5-5---5-5------------------------------------------------------------| x2
A|------------------------------------------------------------------------|
E|------------------------------------------------------------------------|


[Chorus] 

e|---14h15h14-------14h15h14-----------------------------------------------|
B|------------15-------------15--------------------------------------------|
G|-14-------------14-----------14------------------------------------------|
D|-------------------------------------------------------------------------|
A|-------------------------------------------------------------------------|
E|-------------------------------------------------------------------------|
                                                                              x2                           
e|---14h15h14---------14-12-10----------------------------------------------|
B|------------15---17-------10----------------------------------------------|
G|--------------14----------------------------------------------------------|
D|--------------------------------------------------------------------------|
A|--------------------------------------------------------------------------|
E|--------------------------------------------------------------------------|


[Adlib Part 1]

e|-------------------------------------------------------------------------|
B|-12-12-14-14-14----------15-14-------------------------------------------|
G|----------------11-11-11-------------------------------------------------|
D|-------------------------------------------------------------------------|
A|-------------------------------------------------------------------------|
E|-------------------------------------------------------------------------|

e|--------------------------------------------------------------------------|
B|-12-12-14-14-14----------15-17-19-----------------------------------------|
G|----------------11-11-11--------------------------------------------------|
D|--------------------------------------------------------------------------|
A|--------------------------------------------------------------------------|
E|--------------------------------------------------------------------------|


[Adlib Part2]

e|--------------------------------------------------------------------------|
B|--------------------------------------------------------------------------|
G|--------------------------------------------------------------------------|
D|-9-9-9---9-9-9------------------------------------------------------------|
A|-9-9-9---9-9-9------------------------------------------------------------|
E|-7-7-7---7-7-7------------------------------------------------------------|


[Verse]

e|-----------------------------------------------------------------------|
B|-7-x-7-x-7-x-7-x-7h8---------------------------------------------------| 2x
G|-7-x-7-x-7-x-7-x-7-----------------------------------------------------|
D|-----------------------------------------------------------------------|
A|-----------------------------------------------------------------------|
E|-----------------------------------------------------------------------|


[Pre-Chorus]

e|------------------------------------------------------------------------|
B|-10-10-10-10-10---------------------------------------------------------|
G|-9--9--9--9--9----------------------------------------------------------|
D|-7--7--7--7--7----------------------------------------------------------|
A|------------------------------------------------------------------------|
E|------------------------------------------------------------------------|

e|------------------------------------------------------------------------|
B|-12-12-12-12-12---------------------------------------------------------|
G|-11-11-11-11-11---------------------------------------------------------|
D|-9--9--9--9--9----------------------------------------------------------|
A|------------------------------------------------------------------------|
E|------------------------------------------------------------------------|

e|------------------------------------------------------------------------|
B|-8-8-8---7-7------------------------------------------------------------|
G|-7-7-7---7-7------------------------------------------------------------|
D|-5-5-5---5-5------------------------------------------------------------| x2
A|------------------------------------------------------------------------|
E|------------------------------------------------------------------------|


[Chorus] 

e|---14h15h14-------14h15h14-----------------------------------------------|
B|------------15-------------15--------------------------------------------|
G|-14-------------14-----------14------------------------------------------|
D|-------------------------------------------------------------------------|
A|-------------------------------------------------------------------------|
E|-------------------------------------------------------------------------|
                                                                              x4                           
e|---14h15h14---------14-12-10----------------------------------------------|
B|------------15---17-------10----------------------------------------------|
G|--------------14----------------------------------------------------------|
D|--------------------------------------------------------------------------|
A|--------------------------------------------------------------------------|
E|--------------------------------------------------------------------------|


[Adlib Part 1]

e|-------------------------------------------------------------------------|
B|-12-12-14-14-14----------15-14-------------------------------------------|
G|----------------11-11-11-------------------------------------------------|
D|-------------------------------------------------------------------------|
A|-------------------------------------------------------------------------|
E|-------------------------------------------------------------------------|

e|--------------------------------------------------------------------------|
B|-12-12-14-14-14----------15-17-19-----------------------------------------|
G|----------------11-11-11--------------------------------------------------|
D|--------------------------------------------------------------------------|
A|--------------------------------------------------------------------------|
E|--------------------------------------------------------------------------|

[Bridge] 

e|--------------------------------------------------------------------------|
B|--------------------------------------------------------------------------|
G|--------------------------------------------------------------------------| 4x
D|-5--5---7--9-9------------------------------------------------------------|
A|-5--5---7--9-9------------------------------------------------------------|
E|-3--3---5--7-7------------------------------------------------------------|


[Solo]

e|-7-9-10-7-9-10-7-9-10/14-12-10-9-7-7-9-10-7-9-10-7-9-10\9\8\7\7\6\5\4-----|
B|--------------------------------------------------------------------------|
G|--------------------------------------------------------------------------|
D|--------------------------------------------------------------------------|
A|--------------------------------------------------------------------------|
E|--------------------------------------------------------------------------|

e|-7-9-10-7-9-10-7-9-10/14-12-10-9-7-7-9-10-7-14-12-11b----------------------|
B|---------------------------------------------------------------------------|
G|---------------------------------------------------------------------------|
D|---------------------------------------------------------------------------|
A|---------------------------------------------------------------------------|
E|---------------------------------------------------------------------------|


[Chorus] 

Palm Muted 2nd chorus will not be palm-muted
e|--------------------------------------------------------------------------| 2x
B|--------------------------------------------------------------------------|
G|-7-7----------------------------------------------------------------------|
D|-7-7---5-5-5---7-7---9-9-9------------------------------------------------|
A|-5-5---5-5-5---7-7---9-9-9------------------------------------------------|
E|-------3-3-3---5-5---7-7-7------------------------------------------------|



*****************************************

| h   Hammer-on
| b   Bend
| /   Slide up
| \   Slide down
| PM  Palm mute

*****************************************

            
            
Suggest correction
Creating personal tab
Creating personal tab
You can edit any tab online and save it as your Personal.

You can edit, replace or remove any tab part or add personal notes – all changes will be seen only by you.

Personal tabs can be accessed anytime from any device, even offline.
Learn more »
Give kudos to tab author, rate the tab!
1 2 3 4 5
comments
print report bad tab
guest
Wanna post a correction for this tab? Suggest correction