Oops, an error
Loading. Please wait.

Get Up Tab

version 2
version 2

Whole song

Interactive

10,185 views 1 this week
no commentswrite comment
1 2 3 4 5
x 4
add to favorites
launch autoscroll
font size
0
reset
how to read this tab
guitar tuner
Autoscroll
slow
fast
+/-
esc
set tempo
stop
Help us to improve Ultimate-Guitar.com Take our survey!
×
Author
Difficulty
Tuning
novice
D A D G B E
My band's been goin for 5 or so years, and everyone's given this the ok so if you've got 
problems with the tabs then I apologise, its 100% correct to the best of my knowledge.
This is a great praise song, I worked it out by ear a few months ago and we've been 
it at our youth group for 6 months or more now. Most of it is pretty similar the whole way 
so its nice and easy to pick up.

Intro Riff/Verse
  D       Bb  G       F    D        Bb  G       F
E----------------------------|-------------------------|
B----------------------------|-------------------------|
G----------------------------|-------------------------|
D-0--0-0--8-8-5--5-5--3-3--0-|-0-0--8-8-5--5-5--3-xx-3-|
A-0--0-0--8-8-5--5-5--3-3--0-|-0-0--8-8-5--5-5--3-xx-3-|
D-0--0-0--8-8-5--5-5--3-3--0-|-0-0--8-8-5--5-5--3-xx-3-|

Pre-Chorus (we stand together, with hearts joined as one...)
  D        E        F        G
E-------------------------------------|
B-------------------------------------|
G-------------------55555555-77777777-|
D-77777777-99999999-33333333-55555555-|
A-55555555-77777777-------------------|
D-------------------------------------|

Chorus
D      C        G           F
  Everybody get up, if you love him
D      C        G              F      E
  Everybody get up, get up and praise him
D      C        G              F
  Everybody get up, if you're free
     Bb           C
And give him the praise

Instrumental
  D                  D                  D                  D
E----------------------------------------------------------------------------|
B----------------------------------------------------------------------------|
G----------------------------------------------------------------------------|
D-0-------------5-7--0-------------5-4--0-------------5-7--0-------------5-4-|
A-0---3-5--3-5-------0---3-5--3-5-------0---3-5--3-5-------0---3-5--3-5------|
D-0------------------0------------------0------------------0-----------------|

  F                  F                  D                  D
E----------------------------------------------------------------------------|
B----------------------------------------------------------------------------|
G----------------------------------------------------------------------------|
D-3-------------5-7--3-------------5-4--0-------------5-7--0-------------5-4-|
A-3---3-5--3-5-------3---3-5--3-5-------0---3-5--3-5-------0---3-5--3-5------|
D-3------------------3------------------0------------------0-----------------|

Bridge (you, you, everything is all for you...)
  D                 D                 C                 C
E------------------------------------------------------------------------|
B------------------------------------------------------------------------|
G-7--x--7------0-2--7--x--7------0-2--5--x--5------0-2--5--x--5------0-2-|
D-7--x--7-----------7--x--7-----------5--x--5-----------5--x--5----------|
A-5--x--5--3-5------5--x--5--3-5------3--x--3--3-5------3--x--3--3-5-----|
D------------------------------------------------------------------------|
  F                 F                 G                   G (octave up)
E--------------------------------------------------------------------|
B--------------------------------------------------------------------|
G--------------0-2---------------0-2---------------0-2----12---12-12-|
D-3--x--3-----------3--x--3-----------5--x--5-------------12---12-12-|
A-3--x--3--3-5------3--x--3--3-5------5--x--5--3-5--------10---10-10-|
D-3--x--3-----------3--x--3-----------5--x--5------------------------|


It's a pretty easy song, most of its just varying the intro riff. For the chorus all you 
to do is replace the Bb in the riff with a C, and one the second time add a little fill (F,E).
The hardest bit is the instrumental and the bridge so if you can do those then 
you've got it sorted.
Suggest correction
comments
print report bad tab
guest
You may want to rate the tab now too:
select rating
Wanna post a correction for this tab? Suggest correction