Oops, an error
Loading. Please wait.

Hero Tab

403 views 1 this week
no commentswrite comment
1 2 3 4 5
please rate
add to favorites
launch autoscroll
font size
0
reset
how to read this tab
guitar tuner
Autoscroll
slow
fast
+/-
esc
set tempo
stop
Help us to improve Ultimate-Guitar.com Take our survey!
×
Author
I looked all over the net it wasnt tabedd so i did the dirty work
4 u guys it's probably 89% right.

Palm mute--> *
Short ring--> ~

intro
e---------------------------|---------
B---------------------------|---------
G--9-9-9999-66666-------(3x)|---------
D--9-9-9999-66666-77777-----|--9999--- DO THIS LAST PART TILL END OF INTRO
A--7-7-7777-44444-77777-----|--9999---
E-----------------55555-----|--7777---
 
verse
e-------------------------------
B-------------------------------
G--99999999-6-6-6-6~------------
D--99999999-6-6-6-6~-7-7-7-7~---
A--77777777-4-4-4-4~-7-7-7-7~---
E--------------------5-5-5-5~---
  ********* * * *    * * * 

PRE CHORUS
e-----------------------------------------|
B-----------------------------------------|
G-----------6-6-6-66----------------------|
D--9-9-9-99-6-6-6-66-7-7-7-77-9-9-999999--|
A--9-9-9-99-4-4-4-44-7-7-7-77-9-9-999999--|
E--7-7-7-77----------5-5-5-55-7-7-777777--|

chorus
e---------------------|
B---------------------|
G--6-6------9-9-9999--|
D--6-6-7777-9-9-9999--|4 times 
A--4-4-7777-7-7-9999--|
E------5555-----7777--|

pre verse
e------------|
B------------|
G------------|
D--99999999--|
A--99999999--|
E--77777777--|

then back to verse

bridge
e-------------------------------|
B-------------------------------|
G------------------99-99-999999-|
D--9999999-7777777-99-99-999999-|
A--9999999-7777777-77-77-777777-|
E--7777777-5555555--------------|
   ***************

Then do palm mute bit couple of times the do um palm mute part
listen to the cd you will get what I mean.

Then after that, bust into the chorus and play two times
then finsh with intro.
Suggest correction
Give kudos to tab author, rate the tab!
1 2 3 4 5
comments
print report bad tab
guest
You may want to rate the tab now too:
select rating
Please do not post tabs as comments. Select "correction" instead!