Oops, an error
Loading. Please wait.

I Believe Tab

version 1
version 1

Whole song

6,097 views 1 this week
no commentswrite comment
1 2 3 4 5
please rate
add to favorites
launch autoscroll
font size
0
reset
how to read this tab
guitar tuner
Tab Pro tools
  • play this tab
  • loop segment
  • change instrument
  • show fretboard
  • metronome
×
Best way to learn
"I Believe"
Autoscroll
slow
fast
+/-
esc
set tempo
stop
Contributor
Difficulty
novice
Intro:
     A                          D
E---------------------------------|
B-2-0-2-0-2-0-2-3-3---------------|
G---------------------------------|    repeat as many times as needed
D---------------------------------|
A---------------------------------|
E---------------------------------|

Verse 1:
Same as Intro

Pre-Chorus:
F#m7           E A  F#m7        E A F#m7            A D
E-----------------------------------------------------------|
B-----------------------------------------------------------|
G-----------------------------------------------------------|
D------2-----2------------2-----2-------------2-----2-------|
A----0-----0---4--------0-----0---4--------0-----0---5------|
E--3------3------------3------3-----------3------3----------|

Chorus:
     A                         D                       F#m7    E     A                       F#m7
E-----------------------------------------------------------------------------------|
B-----------------------------------------------------------------------------------|
G----------------------7-7-7-7-7-7-7-7----------------------------------------------|
D--7-7-7-7-7-7-7-7-7-7-7-7-7-7-7-7-4-4-4-4-2-2-7-7-7-7-7-7-7-7-4-4-4-4-4-4-4-4------|
A--7-7-7-7-7-7-7-7-5-5-5-5-5-5-5-5-4-4-4-4-2-2-7-7-7-7-7-7-7-7-4-4-4-4-4-4-4-4------|
E--5-5-5-5-5-5-5-5---------------------2-2-2-2-0-0-5-5-5-5-5-5-5-5-2-2-2-2-2-2-2-2--|

     E                         A
E-------------------------------------------------------------|
B-------------------------------------------------------------|
G-------------------------------------------------------------|
D--2-2-2-2-2-2-2-2-7-7-7-7-7-7-7-7-7-7-7-7-7-7-7-7------------| (1st time round let ring)
A--2-2-2-2-2-2-2-2-7-7-7-7-7-7-7-7-7-7-7-7-7-7-7-7------------|
E--0-0-0-0-0-0-0-0-5-5-5-5-5-5-5-5-5-5-5-5-5-5-5-5------------|

Verse 2:
Same as Intro

Pre-Chorus:
Chorus:
comments
We did not receive enough feedback on this tab! Please rate:
print report bad tab
1 2 3 4 5
I want to post or [tab]
guest
You may want to rate the tab now too:
select rating
Please do not post tabs as comments. Select "correction" instead!