Oops, an error
Loading. Please wait.

I Believe Tab

version 2
version 2

Whole song

2,219 views 3 this week
1 commentread comment
1 2 3 4 5
please rate
add to favorites
launch autoscroll
font size
0
reset
how to read this tab
guitar tuner
Tab Pro tools
  • play this tab
  • loop segment
  • change instrument
  • show fretboard
  • metronome
×
Best way to learn
"I Believe"
Autoscroll
slow
fast
+/-
esc
set tempo
stop
Contributor
Difficulty
Tuning
novice
D A D G B E
Artist: Planetshakers
Album: Even Greater
Song: I believe it
Key: G

Intro:
e--------------------------------|
B|-------------------------------|
G|-------------------------------|  
D|--0-2--0-2--5--0-2--0-2-7-5----|  
A|--0-2--0-2--5--0-2--0-2-7-5----|
D|--0-2--0-2--5--0-2--0-2-7-5----| 
 

Verse:
       E        D       A        D
e|----------------------------------------|
B|---------------------7---7--------------|
G|--- 9---9---7---7---6-6-6-6--7---7------|
D|-- 9-9-9-9-7-7-7-7-4---4----7-7-7-7-----| 
A|-/7---7---5---5------------5---5---5/---|
D|----------------------------------------| 

Pre-chorus:
e|---------------------------------------|
B|---------------------------------------|
G|---------------------------------------|  
D|--0-2-0-2--0-2-0-2--0-2-0-2--0-2-2-----|  
A|--0-2-0-2--0-2-0-2--0-2-0-2--0-2-2-----|
D|--0-2-0-2--0-2-0-2--0-2-0-2--0-2-2-----| 

Chorus:
    E     D     A     D 
e|-----|-----|-----|-----|
B|-----|-----|--7--|-----|
G|--9--|--7--|--6--|--7--| 
D|--9--|--7--|--4--|--7--|
A|--7--|--5--|-----|--5--|
D|-----|-----|-----|-----|

Strum open D once as loop plays

Verse

Pre-chorus

Chorus

Bridge:
e|-----------|--------------|
B|-----------|--------------|
G|-----------|--------------|  
D|-0-2--0-2--|--0-2--0-2----|  
A|-----------|--0-2--0-2----| 
D|-----------|--0-2--0-2----| 
  Oh oh oh oh ohhh....

e|-----------------------|
B|-----------------------|
G|-----------------------|  
D|-x0-x2--x0-x2----------|  
A|-x0-x2--x0-x2----------| 
D|-x0-x2--x0-x2----------| 
   You are the centre...(first time)
 
    D     A     G     E
e|-----|-----|-----|-----|
B|-----|-----|-----|-----|
G|-----|-----|-----|-----| 
D|--0--|--7--|--5--|--2--| 
A|--0--|--7--|--5--|--2--|
D|--0--|--7--|--5--|--2--|
  You are the centre..(second time)

Chorus

Outro
e----------------|
B|---------------|
G|---------------| 
D|--0-2-0-2--2~--|
A|--0-2-0-2--2~--|
D|--0-2-0-2--2~--|

End on E chord
 

| /  slide up
| \  slide down
| h  hammer-on
| p  pull-off
| ~  vibrato
| +  harmonic
| x  Mute note

By James Reid
comments
We did not receive enough feedback on this tab! Please rate:
print report bad tab
1 2 3 4 5
1 comment total.
0 reply
christian068 wrote on July 17 2012, 03:08 am

The riffs sound pretty accurate :D
Not so sure about the chords though, do you mind if I have a look at church for chords (I'm sure we have the sheets from Joth somewhere) and get back to you?

I want to post or [tab]
guest
You may want to rate the tab now too:
select rating
Please do not post tabs as comments. Select "correction" instead!