Oops, an error
Loading. Please wait.

Nothing Is Impossible tab

version 3
version 3

Whole song

Interactive

27,699 views 81 this week
no commentswrite comment
1 2 3 4 5
x 11
add to favorites
×
Save as Personal and add changes to this tab that will be seen only by you. Learn more ›
×
You can save this tab as Personal to edit and correct it or add notes. All changes will be seen only by you. Learn more »
launch autoscroll
font size
0
reset
how to read this tab
guitar tuner
edit
Autoscroll
slow
fast
+/-
esc
set tempo
stop
Author
Difficulty
Artist: Planetshakers
Song: Nothing is Impossible
Tabbed by: Keno Ventolero
Standard Tuning

[Intro/Chorus] (do twice)
CP: C-G-Am-F
e|-----------------------------------|
B|-----------------------------------|
G|-----------------------------------|
D|-----------------------------------|
A|--3-3-3-3-3-3-3-3-3-3-3-3-3-3-3-5--|
E|-----------------------------------|
PM  * * * * * * * * * * * * * * * *  

e|-----------------------------------|
B|-----------------------------------|
G|-----------------------------------|
D|-----------------------------------|
A|-----------------------------------|
E|--3-3-3-3-3-3-3-3-3-3-3-3-3-3-3-3--|
PM  * * * * * * * * * * * * * * * *  

e|-----------------------------------|
B|-----------------------------------|
G|-----------------------------------|
D|-----------------------------------|
A|-----------------------------------|
E|--5-5-5-5-5-5-5-5-5-5-5-5-5-5-5-5--|
PM  * * * * * * * * * * * * * * * *  

e|-----------------------------------|
B|-----------------------------------|
G|-----------------------------------|
D|-----------------------------------|
A|-----------------------------------|
E|--1-1-1-1-1-1-1-1-1-1-1-1-1-1-1-1--|
PM  * * * * * * * * * * * * * * * *  

[Interlude]
CP: F-C-Dm-F (2x)

[Guitar 1]
e|----------------------------------------------------------|
B|--8---x-x--8---x-x--8--8---x-x--8--x--8--8--x-x-8--8--8---|
G|--10--x-x--10--x-x--10-10--x-x--9--x--9--9--x-x-9--9--9---|
D|--10--x-x--10--x-x--10-10--x-x--10-x--10-10-x-x-10-10-10--|
A|--8---x-x--8---x-x--8--8---x-x--10-x--10-10-x-x-10-10-10--|
E|-----------------------------8--x--8--8--x-x-8--8--8------|

[Guitar 2]
e|------------------------------------------|
B|------------------------------------------|
G|---------------------5-x-5-5-x-x-5-5-5----|
D|--3-x-x-3-x-x-3-3--x-x--5-x-5-5-x-x-5-5-5-|
A|--3-x-x-3-x-x-3-3--x-x--3-x-3-3-x-x-3-3-3-|
E|--1-x-x-1-x-x-1-1--x-x--------------------|

[Guitar 1]
e|--5-x-x-5-x-x-5-5-x------------------------------|
B|--6-x-x-6-x-x-6-6-x--8--x-x-8--8--x-x--8--8--8---|
G|--7-x-x-7-x-x-7-7-x--10-x-x-10-10-x-x--10-10-10--|
D|--7-x-x-7-x-x-7-7-x--10-x-x-10-10-x-x--10-10-10--|
A|--5-x-x-5-x-x-5-5-x--8--x-x-8--8--x-x--8--8--8---|
E|-------------------------------------------------|

[Guitar 2]
e|------------------------------------------------|
B|------------------------------------------------|
G|--7-x-x-7-x-x-7-7--x-x-10-x-10-10-x-x-10-10-10--|
D|--7-x-x-7-x-x-7-7--x-x-10-x-10-10-x-x-10-10-10--|
A|--5-x-x-5-x-x-5-5--x-x-8--x-8--8--x-x-8--8--8---|
E|------------------------------------------------|

[Verse]
CP: C-Dm-F
    Am-G-F
e|------------------------------------|--------------|
B|------------------------------------|--------------|
G|---5~---7~--------------------------|--------0-2~--|
D|---5~---7~---3~------7~---5~---3~---|------3-------|
A|---3~---5~---3~------7~---5~---3~---|----3---------|
E|-------------1~------5~---3~---1~---|--1-----------| [2x]
(the tiny bit at the end is played twice 
 after the second F chord..)

[Refrain]
CP: Am-G-F
    Am-G-Dm-F
e|------------------------|
B|------------------------| 
G|-------12------12-------|  
D|--9-10----9-10----9-10--|
A|------------------------|
E|------------------------| [8x]
PM  * *     * *     * *

[Chorus]
CP: C-G-Am-F (2x)
e|--------------------------------------------------------------------|
B|--------------------------------------------------------------------|
G|--------------------------------------------------------------------|
D|--5-5-5-5-5-5-5-5-5-5-5-5-5-5-5-5-----------------------------------|
A|--3-3-3-3-3-3-3-3-3-3-3-3-3-3-3-3--5-5-5-5-5-5-5-5-5-5-5-5-5-5-5-5--|
E|--------------------3-3-3-3-3-3-3-3-3-3-3-3-3-3-3-3-----------------|

e|--------------------------------------------------------------------|
B|--------------------------------------------------------------------|
G|--------------------------------------------------------------------|
D|--------------------------------------------------------------------|
A|--7-7-7-7-7-7-7-7-7-7-7-7-7-7-7-7--3-3-3-3-3-3-3-3-3-3-3-3-3-3-3-3--|
E|--5-5-5-5-5-5-5-5-5-5-5-5-5-5-5-5--1-1-1-1-1-1-1-1-1-1-1-1-1-1-1-1--|

e|--------------------------------------------------------------------|
B|--------------------------------------------------------------------|
G|--------------------------------------------------------------------|
D|--5-5-5-5-5-5-5-5-5-5-5-5-5-5-5-5-----------------------------------|
A|--3-3-3-3-3-3-3-3-3-3-3-3-3-3-3-3--5-5-5-5-5-5-5-5-5-5-5-5-5-5-5-5--|
E|--------------------3-3-3-3-3-3-3-3-3-3-3-3-3-3-3-3-----------------|

e|------------------------------------------------------------|
B|------------------------------------------------------------|
G|------------------------------------------------------------|
D|------------------------------------------------------------|
A|--7-7-7-7-7-7-7-7-7-7-7-7-7-7-7-7--3-3-3-3-3-3-3-3-x--------|
E|--5-5-5-5-5-5-5-5-5-5-5-5-5-5-5-5--1-1-1-1-1-1-1-1-x--------|


[Interlude]
CP: F-C-Dm-F

[Verse]
CP: C-Dm-F
    Am-G-F
e|------------------------------------|--------------|
B|------------------------------------|--------------|
G|---5~---7~--------------------------|--------0-2~--|
D|---5~---7~---3~------7~---5~---3~---|------3-------|
A|---3~---5~---3~------7~---5~---3~---|----3---------|
E|-------------1~------5~---3~---1~---|--1-----------| [2x]
(the tiny bit at the end is played twice 
 after the second F chord..)

[Refrain]
CP: Am-G-F
    Am-G-Dm-F
e|------------------------|
B|------------------------| 
G|-------12------12-------|  
D|--9-10----9-10----9-10--|
A|------------------------|
E|------------------------| [8x]
PM  * *     * *     * *

[Chorus]
CP: C-G-Am-F (2x)
e|--------------------------------------------------------------------|
B|--------------------------------------------------------------------|
G|--------------------------------------------------------------------|
D|--5-5-5-5-5-5-5-5-5-5-5-5-5-5-5-5-----------------------------------|
A|--3-3-3-3-3-3-3-3-3-3-3-3-3-3-3-3--5-5-5-5-5-5-5-5-5-5-5-5-5-5-5-5--|
E|--------------------3-3-3-3-3-3-3-3-3-3-3-3-3-3-3-3-----------------|

e|--------------------------------------------------------------------|
B|--------------------------------------------------------------------|
G|--------------------------------------------------------------------|
D|--------------------------------------------------------------------|
A|--7-7-7-7-7-7-7-7-7-7-7-7-7-7-7-7--3-3-3-3-3-3-3-3-3-3-3-3-3-3-3-3--|
E|--5-5-5-5-5-5-5-5-5-5-5-5-5-5-5-5--1-1-1-1-1-1-1-1-1-1-1-1-1-1-1-1--|

e|--------------------------------------------------------------------|
B|--------------------------------------------------------------------|
G|--------------------------------------------------------------------|
D|--5-5-5-5-5-5-5-5-5-5-5-5-5-5-5-5-----------------------------------|
A|--3-3-3-3-3-3-3-3-3-3-3-3-3-3-3-3--5-5-5-5-5-5-5-5-5-5-5-5-5-5-5-5--|
E|--------------------3-3-3-3-3-3-3-3-3-3-3-3-3-3-3-3-----------------|

e|------------------------------------------------------------|
B|------------------------------------------------------------|
G|------------------------------------------------------------|
D|------------------------------------------------------------|
A|--7-7-7-7-7-7-7-7-7-7-7-7-7-7-7-7--3-3-3-3-3-3-3-3-x--------|
E|--5-5-5-5-5-5-5-5-5-5-5-5-5-5-5-5--1-1-1-1-1-1-1-1-x--------|

[Instrumental/Bridge]
CP: F-C-Dm-F

[Guitar 1]
e|--------------------------------------|
B|--------------------------------------|
G|--12-12-12-12-12-12-12-12-12-12-12----|
D|--10-10-10-10-10-10-10-10-10-10-10----|
A|--------------------------------------|
E|--------------------------------------|

[Guitar 2]
e|---------------------------|
B|---------------------------|
G|---------------------5-x---|
D|--3-xx-3-xx-3-3--xx--5-x---|
A|--3-xx-3-xx-3-3--xx--3-x---|
E|--1-xx-1-xx-1-1--xx--------|

[Guitar 1]
e|--------------------------------------|
B|--------------------------------------|
G|--12-12-12-12-12-12-12-12-12-12-12----|
D|--10-10-10-10-10-10-10-10-10-10-10----|
A|--------------------------------------|
E|--------------------------------------|

[Guitar 2]
e|------------------------------|
B|------------------------------|
G|--7-x-x-7-x-x-7-7--x-x-10-x---|
D|--7-x-x-7-x-x-7-7--x-x-10-x---|
A|--5-x-x-5-x-x-5-5--x-x-8--x---|
E|------------------------------|

"I believe! I believe!"

e|-----------------------------------------------------------------------|
B|-----------------------------------------------------------------------|
G|-----------------------------------------------------------------------|
D|------------5-5-5-5-5-5-5-5--7-7-7-7-7-7-7-7--10-10-10-10-10-10-10-10--|
A|--3-3-3-3-3-3-3-3--3-3-3-3-3-3-3-3--5-5-5-5-5-5-5-5--8-8-8-8-8-8-8-8---|
E|--1-1-1-1-1-1-1-1------------------------------------------------------| [2x]

[Chorus]
CP: C-G-Am-F (2x)
e|--------------------------------------------------------------------|
B|--------------------------------------------------------------------|
G|--------------------------------------------------------------------|
D|--5-5-5-5-5-5-5-5-5-5-5-5-5-5-5-5-----------------------------------|
A|--3-3-3-3-3-3-3-3-3-3-3-3-3-3-3-3--5-5-5-5-5-5-5-5-5-5-5-5-5-5-5-5--|
E|--------------------3-3-3-3-3-3-3-3-3-3-3-3-3-3-3-3-----------------|

e|--------------------------------------------------------------------|
B|--------------------------------------------------------------------|
G|--------------------------------------------------------------------|
D|--------------------------------------------------------------------|
A|--7-7-7-7-7-7-7-7-7-7-7-7-7-7-7-7--3-3-3-3-3-3-3-3-3-3-3-3-3-3-3-3--|
E|--5-5-5-5-5-5-5-5-5-5-5-5-5-5-5-5--1-1-1-1-1-1-1-1-1-1-1-1-1-1-1-1--|

e|--------------------------------------------------------------------|
B|--------------------------------------------------------------------|
G|--------------------------------------------------------------------|
D|--5-5-5-5-5-5-5-5-5-5-5-5-5-5-5-5-----------------------------------|
A|--3-3-3-3-3-3-3-3-3-3-3-3-3-3-3-3--5-5-5-5-5-5-5-5-5-5-5-5-5-5-5-5--|
E|--------------------3-3-3-3-3-3-3-3-3-3-3-3-3-3-3-3-----------------|

e|------------------------------------------------------------|
B|------------------------------------------------------------|
G|------------------------------------------------------------|
D|------------------------------------------------------------|
A|--7-7-7-7-7-7-7-7-7-7-7-7-7-7-7-7--3-3-3-3-3-3-3-3-x--------|
E|--5-5-5-5-5-5-5-5-5-5-5-5-5-5-5-5--1-1-1-1-1-1-1-1-x--------|

[Bridge]
[Guitar 1]
e|--------------------------------------|
B|--------------------------------------|
G|--12-12-12-12-12-12-12-12-12-12-12----|
D|--10-10-10-10-10-10-10-10-10-10-10----|
A|--------------------------------------|
E|--------------------------------------|

[Guitar 2]
e|------------------------------|
B|------------------------------|
G|--7-x-x-7-x-x-7-7--x-x-10-x---|
D|--7-x-x-7-x-x-7-7--x-x-10-x---|
A|--5-x-x-5-x-x-5-5--x-x-8--x---|
E|------------------------------|

************************************

| PM  Palm mute
| x   Dead note
| ~   Vibrato

************************************
Suggest correction
Creating personal tab
Creating personal tab
You can edit any tab online and save it as your Personal.

You can edit, replace or remove any tab part or add personal notes – all changes will be seen only by you.

Personal tabs can be accessed anytime from any device, even offline.
Learn more »
comments
print report bad tab
guest
You may want to rate the tab now too:
select rating
Wanna post a correction for this tab? Suggest correction