Oops, an error
Loading. Please wait.

Rise Up tab

1,468 views 3 this week
no commentswrite comment
1 2 3 4 5
1 last vote to show rating
add to favorites
×
Save as Personal and add changes to this tab that will be seen only by you. Learn more ›
×
You can save this tab as Personal to edit and correct it or add notes. All changes will be seen only by you. Learn more »
launch autoscroll
font size
0
reset
how to read this tab
guitar tuner
edit
Autoscroll
slow
fast
+/-
esc
set tempo
stop
Author
Difficulty
Tuning: EADGBe
Key: Cm/Eb
Timing: 127 BPM in 4/4

Legend:
* = Pinch Harmonic
. = Palm muted
/ = Slide Down
\ = Slide Up
< = Build it Up
> = Bring it Down
x = note not played/octaves

Guitar 1) Rhythm
Guitar 2) Lead
Guitar 3) Extra, eg high chords over lead and lower rhythm parts, harmonized lead etc etc. 


Intro (During the synth part, this is optional but I play it)
(Sprays)

Guitar One
   C      Eb      Fm
e|-------------------|
B|-------------------|
G|---------8------10-|
D|-10------8------10-|X2
A|-10------6------8--|
E|-8-----------------|

Guitar Two
e|-8-------11-----13-|
B|-8-------11-----13-|
G|-5-------8------10-|
D|-------------------|X2
A|-------------------|
E|-------------------|

Interlude/Tag
(Riff)

Guitar 1
e|------------------------------------------------------|
B|------------------------------------------------------|
G|------------------------------------------------------|
D|------------------------------------------------------|X2
A|-------6-8-10-------6-8-10-------6-8-10-8-8-6-8-6-5---|
E|-8-8-8--------8-8-8--------8-8-8----------------------|

Guitar 2
e|--------------------------------------------------------|
B|--------------------------------------------------------|
G|-5-5-5-8-10-12-5-5-5-8-10-12-5-5-5-8-10-12-10-8-10-8-7--|
D|-x-x-x-x-x--x--x-x-x-x-x--x--x-x-x-x-x--x--x--x-x--x-x--|X2
A|-3-3-3-6-8--10-3-3-3-6-8--10-3-3-3-6-8--10-8--6-8--6-5--|
E|--------------------------------------------------------|


Verse

Guitar One
         C                 Eb              Fm            Ab       Bb
   . . . . . . . .  . . . . . . . .  . . . . . . . .  . . . .  . . . .
e|----------------------------------------------------------------------|
B|----------------------------------------------------------------------|
G|-5-5-5-5-5-5-5-5--8-8-8-8-8-8-8-8-------------------------------------|
D|-5-5-5-5-5-5-5-5--8-8-8-8-8-8-8-8--3-3-3-3-3-3-3-3--6-6-6-6--8-8-8-8--|
A|-3-3-3-3-3-3-3-3--6-6-6-6-6-6-6-6--3-3-3-3-3-3-3-3--6-6-6-6--8-8-8-8--|
E|-----------------------------------1-1-1-1-1-1-1-1--4-4-4-4--6-6-6-6--|

Guitar Two
    . . . . . . . . . . . . . . . . . . . . . . . . . . . . . . . .
e|-------------------------------------------------------------------|
B|--8---8---8---8---6---6---6---6---8---8---8---8---6---6------------|
G|----8---8---8---8---8---8---8---8---8---8---8---8---8---8-8-8-8-8--|
D|-------------------------------------------------------------------|
A|-------------------------------------------------------------------|
E|-------------------------------------------------------------------|


Pre-Chorus

Guitar One
       Ab                 Bb
e|--------------------------------------|
B|--------------------------------------|
G|--------------------------------------| X2
D|-6-6--6-6-6-6--6-6-8-8--8-8-8-8--8-8--|
A|-6-6--6-6-6-6--6-6-8-8--8-8-8-8--8-8--|
E|-4-4--4-4-4-4--4-4-6-6--6-6-6-6--6-6--|


Guitar Two
e|----------------------------------------------|
B|----------------------------------------------|
G|--8-8--8-8-8-8--8-8-10-10--10-10-10-10--10-10-| X2
D|----------------------------------------------|
A|----------------------------------------------|
E|----------------------------------------------|

Chorus

Guitar One
      C     Eb    Fm   Bb   B    C      Eb  Fm    Bb  B  C
e|--------------------------------------------------------------|
B|--------------------------------------------------------------|
G|--------8-8-8-10-10------------------8-8-8-10-10--------------|
D|--10-10-8-8-8-10-10-8-8-8-9-10-10-10-8-8-8-10-10-8-8-8-11-10--|
A|--10-10-6-6-6-8--8--8-8-8-9-10-10-10-6-6-6-8--8--8-8-8-9--10--|
E|--8--8--------------6-6-6-7-8--8--8--------------6-6-6-7--8---|

      C     Eb    Fm   Bb   B    C       Eb   Fm     Bb      Ab    Bb
e|-------------------------------------------------------------------------------|
B|-------------------------------------------------------------------------------|
G|--------8-8-8-10-10------------------8-8-8-10-10-------------------------------|
D|--10-10-8-8-8-10-10-8-8-8-9-10-10-10-8-8-8-10-10-8-8-8-8-6-6-6-6-8-8-----------|
A|--10-10-6-6-6-8--8--8-8-8-9-10-10-10-6-6-6-8--8--8-8-8-8-6-6-6-6-8-8------6-8--|
E|--8--8--------------6-6-6-7-8--8--8--------------6-6-6-6-4-4-4-4-6-6--6-8------|

Guitar Two
This player pretty much just holds a high C chord and plays it over and over again

e|-8-8-8-8-8-8-8-8-8-8-8-8-8-8-8-8-8-8-8--|
B|-8-8-8-8-8-8-8-8-8-8-8-8-8-8-8-8-8-8-8--|
G|-5-5-5-5-5-5-5-5-5-5-5-5-5-5-5-5-5-5-5--|
D|----------------------------------------|
A|----------------------------------------|
E|----------------------------------------|



As far as arrangement goes, I think this is pretty accurate
Intro (Synth)
Interlude
Verse
Pre Chorus
Chorus
Interlude
Verse
Pre Chorus
Chorus X2
Interlude X2
Bridge X2 (Synth Only)
Pre Chorus
Chorus X2
Interlude
Last line – End on C

email me at christian.hrowney@gmail.com if you have any questions or need any help 
with any of my tabs and I'll be sure to reply as soon as I can, or add me on 
facebook here: https://www.facebook.com/christian.heinzerowney


Peace Out
Suggest correction
Creating personal tab
Creating personal tab
You can edit any tab online and save it as your Personal.

You can edit, replace or remove any tab part or add personal notes – all changes will be seen only by you.

Personal tabs can be accessed anytime from any device, even offline.
Learn more »
Give kudos to tab author, rate the tab!
1 2 3 4 5
comments
print report bad tab
guest
You may want to rate the tab now too:
select rating
Wanna post a correction for this tab? Suggest correction