Oops, an error
Loading. Please wait.

Salvation bass

1,616 views 1 this week
2 commentsread comments
1 2 3 4 5
3 more votes to show rating
add to favorites
×
Save as Personal and add changes to this tab that will be seen only by you. Learn more ›
×
You can save this tab as Personal to edit and correct it or add notes. All changes will be seen only by you. Learn more »
launch autoscroll
font size
0
reset
guitar tuner
edit
Autoscroll
slow
fast
+/-
esc
set tempo
stop
Author
Difficulty
Verse 1
G|----------------------------------------|
D|----------------------------------------|      x2
A|----------------------------------------|
E|77777777-4444444444-2222222222-000000000|

Pre chorus

G|----------------------------------------|
D|----------------------------------------|
A|44--------44---------44--------44-------|
E|---44-00-----44-22------44-00-----44-22-|

Chorus 1

G|----------------------------------------|
D|----------------------------------------|     X2
A|222222----------------------------------|
E|-------0000000--222222222---------------|

G|----------------------------------------|
D|----------------------------------------|     X2
A|------------------222222222-------------|
E|444444-0000000000----------4444444444---|

Verse 2

G|----------------------------------------|
D|----------------------------------------|     x2
A|----------------------------------------|
E|77777777-4444444444-2222222222-000000000|

Chorus 2

G|----------------------------------------|
D|----------------------------------------|     X2
A|222222----------------------------------|
E|-------0000000--222222222---------------|

G|----------------------------------------|
D|----------------------------------------|     X2
A|------------------222222222-------------|
E|444444-0000000000----------4444444444---|

Bass solo thing

G|----------------------------------------|
D|----------------------------------------|    x9
A|--2---2---2-444222-----4---4--4-444222--|
E|44-4-4-4-4------------00-0-0--0---------|

Chorus 3

G|----------------------------------------|
D|----------------------------------------|
A|----------------------------------------|
E|-7--------------------------------------|

G|----------------------------------------|
D|----------------------------------------|
A|----------------------------------------|
E|-2/7------------------------------------|

G|----------------------------------------|
D|----------------------------------------|     X2
A|------------------222222222-------------|
E|444444-0000000000----------4444444444---|

G|----------------------------------------|
D|----------------------------------------|     X2
A|222222----------------------------------|
E|-------0000000--222222222---------------|

G|----------------------------------------|
D|----------------------------------------|     X4
A|------------------222222222-------------|
E|444444-0000000000----------4444444444--0|


God Bless.. I might have to work out that solo part again but this is how i'm playing it 
the moment.. Enjoy
Suggest correction
Creating personal tab
Creating personal tab
You can edit any tab online and save it as your Personal.

You can edit, replace or remove any tab part or add personal notes – all changes will be seen only by you.

Personal tabs can be accessed anytime from any device, even offline.
Learn more »
Give kudos to tab author, rate the tab!
1 2 3 4 5
comments
print report bad tab
2 comments total.
0 reply
AlexAj 152 May 01, 2008 10:52 PM

Oops i made a mistake the solo goes
G|----------------------------------------|
D|----------------------------------------| x9
A|--2---2---2-444222-----4---4--4-666444--|
E|44-4-4-4-4-----------00-0-0--0----------|

My bad

0 reply
Bassit4Christ 52 Dec 06, 2011 03:36 PM

This is the solo part
At the end go straight back into the solo again with no break

G|----------------------------------|
D|----------------------------------|
A|---2---2—-222242---2---2--4444642-|x6
E|-44-4-4-4--------00-0-0-0---------|

guest
You may want to rate the tab now too:
select rating
Wanna post a correction for this tab? Suggest correction