Oops, an error
Loading. Please wait.

Sing It Again solo bass

version 1
version 1

Solo

Interactive

2,692 views 66 this week
no commentswrite comment
1 2 3 4 5
x 4
add to favorites
×
Save as Personal and add changes to this tab that will be seen only by you. Learn more ›
×
You can save this tab as Personal to edit and correct it or add notes. All changes will be seen only by you. Learn more »
launch autoscroll
font size
0
reset
guitar tuner
edit
Autoscroll
slow
fast
+/-
esc
set tempo
stop
-------------------------------------------------------------------------------
                 Sing it again (Solo Part) - Planetshakers
-------------------------------------------------------------------------------

Tabbed by: Januel Vsn Christian
E-mail: Januelvanchristian@yahoo.com/gmail.com

Tuning: Standard

 1st Bar                          2nd Bar
G|----------------------8---------|--8-6-------------------------|
D|--4---------------------tap-x---|------8-tap-x---6h8-6-tap-x---|
A|----tap-x--------4-4/6--------6-|-6-4---------6h8--------------|
E|-2--------2-2-4/6-6-------------|-----6------------------------|

  3rd Bar (played extremely fast)

G|----------------13-13/18-18-18-17-17---------------------------|
D|-----------13-13--------------------18-18----------------------|
A|-6/11-11-11------------------------------18-18-----------------|
E|----------------------------------------------16-16------------|

  4th Bars                        5th Bar 
G|----------------------8-tap-x-|-6h8---6------------------------|
D|---16-------------------------|----6h8-8-7-6-------------------|
A|-----tap-x-------4-4/6--------|-------------8-7-6-5-4-4--------|
E|-14-------2-2-4/6-6-----------|----------------------6-6-------|

 6th Bar
G|--------------6h8-5--------------------------------------------|
D|---------6-6h8-----6-------------------------------------------|
A|----4-6h8-8---------6-4----------------------------------------|
E|-4h6-6-----------------6-4-1-2---------------------------------|



| /  slide up
| \  slide down
| h  hammer-on
| p  pull-off
| ~  vibrato
| +  harmonic
| x  Mute note

===============================================================================

Hi there.. :))
this is my first tab here..
I hope it helps .

im still a begginer in bass. anyways .. ur welcome..


            
            
Suggest correction
Creating personal tab
Creating personal tab
You can edit any tab online and save it as your Personal.

You can edit, replace or remove any tab part or add personal notes – all changes will be seen only by you.

Personal tabs can be accessed anytime from any device, even offline.
Learn more »
comments
print report bad tab
guest
You may want to rate the tab now too:
select rating
Wanna post a correction for this tab? Suggest correction