Oops, an error
Loading. Please wait.

Supernatural tab

8,739 views 45 this week
no commentswrite comment
1 2 3 4 5
x 5
add to favorites
×
Save as Personal and add changes to this tab that will be seen only by you. Learn more ›
×
You can save this tab as Personal to edit and correct it or add notes. All changes will be seen only by you. Learn more »
launch autoscroll
font size
0
reset
how to read this tab
guitar tuner
edit
Autoscroll
slow
fast
+/-
esc
set tempo
stop
Author
Supernatural by PlanetShakers. Key of Dm, bpm= 140
Chords; D5, Dm, F, G, Bb, C

Intro to Verse 1

Lead Guitar (Alone first time through)
e|----------------------------|
B|----------------------------|
G|----------------------------|
D|-------------------3--------|
A|-------5----3---------5*----|
D|-0-0-3---0-3--0-3-0---------|

e|------------------------------|
B|------------------------------|
G|--------------------555555555-|
D|--------------------555555555-|
A|-------5----3-------333333333-|
D|-0-0-3---0-3--0-3-0-----------|

Rhythm Intro
e|------------------------------------|
B|--------------------13--------------|
G|--------------------12-x8-----------|
D|-0------------------10--------------|
A|-0----------------------------------|
D|-0----------------------------------|
Both Guitars
e|-------------------------------|
B|---------------------555555555-|
G|---------------------555555555-|
D|-0-3-5--0-3-5--0-3-5-333333333-|x3
A|-0-3-5--0-3-5--0-3-5-----------|
D|-0-3-5--0-3-5--0-3-5-----------|



Verse! Also for both Guitars

e|-------------------------------------|
B|-------------------------------------|
G|----------------5--------5--4--------|
D|--0--0--0--0--0-5-0--0-0-5--5--3-5-3-|x2
A|--0--0--0--0--0-3-0--0-0-3--2--3-5-3-|
D|--0--0--0--0--0---0--0-0-------3-5-3-|


Pre Chorus

Rhythm Guitar (Low Chords)
e|----------------------------------------------------------------|
B|----------------------------------------------------------------|
G|--3-3-3-5-5-5-7---3-3-3-5-5-5-7---3-3-3-5-5-5-7-5-5-5-5---------|
D|--3-3-3-5-5-5-7---3-3-3-5-5-5-7---3-3-3-5-5-5-7-5-5-5-5-5-5-5-5-|
A|--1-1-1-3-3-3-5---1-1-1-3-3-3-5---1-1-1-3-3-3-5-3-3-3-3-5-5-5-5-|
D|--------------------------------------------------------5-5-5-5-|

Lead Guitar (Playing High Chords)
e|--------------------------------------------------------------------------------|
B|--11-11-11-13-13-13-15--11-11-11-13-13-13-15--11-11-11-13-13-13-15-13131313-8888|
G|--10-10-10-12-12-12-14--10-10-10-12-12-12-14--10-10-10-12-12-12-14-12121212-7777|
D|--8--8--8--10-10-10-12---8--8--8-10-10-10-12---8--8--8-10-10-10-12-10101010-5555|
A|--------------------------------------------------------------------------------|
D|--------------------------------------------------------------------------------|


Chorus

Rhythm Guitar

e|---------------------------------|
B|---------------------------------|
G|---------5-5-5-5---------3-3-5-5-| X2
D|-0-0-0-0-5-5-5-5-5-5-5-5-3-3-5-5-|
A|-0-0-0-0-3-3-3-3-5-5-5-5-1-1-3-3-|
D|-0-0-0-0---------5-5-5-5---------|

Lead Guitar

e|-------------------------------------------|
B|-15-15-15-15-13-13-13-13-8-8-8-8-101013-13-|
G|-14-14-14-14-12-12-12-12-7-7-7-7-9-9-12-12-| X2
D|-12-12-12-12-10-10-10-10-5-5-5-5-7-7-10-10-|
A|-------------------------------------------|
D|-------------------------------------------|



Verse 2 Re-Intro

e|----------------------------|
B|----------------------------|
G|----------------------------|
D|-------------------3--------|
A|-------5----3---------5*----|
D|-0-0-3---0-3--0-3-0---------|

e|-----------------------------|
B|-----------------------------|
G|-------------------------555-|
D|-------------------------555-|
A|---------5-------3-------333-|
D|-0-0-3-0---0-3-0--0-3-0------|

e|-------------------------------------|
B|-------------------------------------|
G|----------------5--------5--4--------|
D|--0--0--0--0--0-5-0--0-0-5--5--3-5-3-|x2
A|--0--0--0--0--0-3-0--0-0-3--2--3-5-3-|
D|--0--0--0--0--0---0--0-0-------3-5-3-|


Pre Chorus

Rhythm Guitar (Low Chords)
e|----------------------------------------------------------------|
B|----------------------------------------------------------------|
G|--3-3-3-5-5-5-7---3-3-3-5-5-5-7---3-3-3-5-5-5-7-5-5-5-5---------|
D|--3-3-3-5-5-5-7---3-3-3-5-5-5-7---3-3-3-5-5-5-7-5-5-5-5-5-5-5-5-|
A|--1-1-1-3-3-3-5---1-1-1-3-3-3-5---1-1-1-3-3-3-5-3-3-3-3-5-5-5-5-|
D|--------------------------------------------------------5-5-5-5-|

Lead Guitar (Playing High Chords)
e|--------------------------------------------------------------------------------|
B|--11-11-11-13-13-13-15--11-11-11-13-13-13-15--11-11-11-13-13-13-15-13131313-8888|
G|--10-10-10-12-12-12-14--10-10-10-12-12-12-14--10-10-10-12-12-12-14-12121212-7777|
D|--8--8--8--10-10-10-12---8--8--8-10-10-10-12---8--8--8-10-10-10-12-10101010-5555|
A|--------------------------------------------------------------------------------|
D|--------------------------------------------------------------------------------|
Chorus

Rhythm Guitar

e|---------------------------------|
B|---------------------------------|
G|---------5-5-5-5---------3-3-5-5-| X2
D|-0-0-0-0-5-5-5-5-5-5-5-5-3-3-5-5-|
A|-0-0-0-0-3-3-3-3-5-5-5-5-1-1-3-3-|
D|-0-0-0-0---------5-5-5-5---------|

Lead Guitar

e|-------------------------------------------|
B|-15-15-15-15-13-13-13-13-8-8-8-8-101013-13-|
G|-14-14-14-14-12-12-12-12-7-7-7-7-9-9-12-12-| X2
D|-12-12-12-12-10-10-10-10-5-5-5-5-7-7-10-10-|
A|-------------------------------------------|
D|-------------------------------------------|

Bridge Intro

e|----------------------------|
B|----------------------------|
G|----------------------------|
D|-------------------3--------| X4
A|-------5----3---------5*----|
D|-0-0-3---0-3--0-3-0---------|

Bridge

e|--------------------------|
B|--------------------------|
G|--------------------------|
D|--------------------------| X4
A|------------------3-3-3-3-|
D|-0-3-5-0-3-5-0-3-5--------|
Full Bridge

e|-------------------------------|
B|---------------------555555555-|
G|---------------------555555555-|
D|-0-3-5--0-3-5--0-3-5-333333333-|
A|-0-3-5--0-3-5--0-3-5-----------|
D|-0-3-5--0-3-5--0-3-5-----------|

Bridge Outro

e|----------------------------|
B|----------------------------|
G|----------------------------|
D|-------------------3--------| X4
A|-------5----3---------5*----|
D|-0-0-3---0-3--0-3-0---------|


e|------------------------|
B|--------------------16--|
G|-------7--7-7-7-7---14--|
D|-0--7--7--7-7-7-7---12--|After you hit the D on the 12-16 frets, you can tremolo
A|-0--5--5--5-5-5-5-------|pick your way up the B string, doing bends or whatever.
D|-0----------------------|as long as you stay in the right key.
I do it till I reach the 22 or 20th fret before pulling a huge bend.

Chorus

Rhythm Guitar

e|---------------------------------|
B|---------------------------------|
G|---------5-5-5-5---------3-3-5-5-| X2
D|-0-0-0-0-5-5-5-5-5-5-5-5-3-3-5-5-|
A|-0-0-0-0-3-3-3-3-5-5-5-5-1-1-3-3-|
D|-0-0-0-0---------5-5-5-5---------|

Lead Guitar

e|-------------------------------------------|
B|-15-15-15-15-13-13-13-13-8-8-8-8-101013-13-|
G|-14-14-14-14-12-12-12-12-7-7-7-7-9-9-12-12-| X2
D|-12-12-12-12-10-10-10-10-5-5-5-5-7-7-10-10-|
A|-------------------------------------------|
D|-------------------------------------------|


Outro

e|----------------------------|
B|----------------------------|
G|----------------------------|
D|-------------------3--------| X2
A|-------5----3---------5*----|
D|-0-0-3---0-3--0-3-0---------|


Rhythm guitar
e|------------------|
B|------------------|
G|------------------|X3
D|------------------|
A|-5-4-3---------3--|
D|-------7-6-5-3----|

Lead Guitar
e|------------------|
B|------------------|
G|-7-6-5---------5--|X3
D|-------7-6-5-3----|
A|------------------|
D|------------------|

Final Riff (Both Guitars)

e|---------------|
B|---------------|
G|---------------|
D|-------------3-|
A|-------0-3-5-3-|
E|-0-3-5-------3-|


Wicked!! Awesome song, some parts can be difficult, but it depends on your
determination. Anyone can play this song if they are willing to practice and do it again 
and again.
Also, check out my friend Matt's Trax profile here; http://loopcommunity.com/mjaldridge7 
He has tracks for this song in Drop C and
Drop D, plus plenty of other cool songs. They aren't free, but they are accurate, high
quality and just amazing. No bias intended.

If you have any questions or want the studio or live version of the song email me at
christian.hrowney@gmail.com and I'll hook you up.

Happy playing!
Suggest correction
Creating personal tab
Creating personal tab
You can edit any tab online and save it as your Personal.

You can edit, replace or remove any tab part or add personal notes – all changes will be seen only by you.

Personal tabs can be accessed anytime from any device, even offline.
Learn more »
comments
print report bad tab
guest
You may want to rate the tab now too:
select rating
Wanna post a correction for this tab? Suggest correction