Oops, an error
Loading. Please wait.

This Is Our Time tab

version 2
version 2

Whole song

Interactive

640 views 6 this week
no commentswrite comment
1 2 3 4 5
2 more votes to show rating
add to favorites
×
Save as Personal and add changes to this tab that will be seen only by you. Learn more ›
×
You can save this tab as Personal to edit and correct it or add notes. All changes will be seen only by you. Learn more »
launch autoscroll
font size
0
reset
how to read this tab
guitar tuner
edit
Autoscroll
slow
fast
+/-
esc
set tempo
stop
-------------------------------------------------------------------------------
                             This Is Our Time - Planetshakers 
-------------------------------------------------------------------------------
Tabbed by: Jasmin Mendoza
E-mail: mendozajasmin03@gmail.com
Twitter & Instagram: jasminxmendoza

Capo on 3rd fret. 

Tuning: Standard 

Verse: x2 Am 
e|---------------------------------------------------------------------------|
B|-1-1-1-1--1-1-1--1-1-0-1-0-1-1-1-------------------------------------------|
G|-2-------------------------------------------------------------------------|
D|-2-------------------------------------------------------------------------|
A|-0--------0------0---------0-0-0-------------------------------------------|
E|---------------------------------------------------------------------------|

Pre-Chorus x2
e|------3-------0-0-----0-----0----------------------------------------------|
B|-1----1--1--3-----1-3----3----3--------------------------------------------|
G|------2------------------0----0--------------------------------------------|
D|------3--------------------------------------------------------------------|
A|------------3-----3--------------------------------------------------------|
E|-------------------------3----3--------------------------------------------|

Chorus: F-C-G-Am
e|-------------------0-------------------------------------------------------|
B|-1--1-1-1-1---1-1----3--3-3--1-1-3-5-5-3-1-0-1-----------------------------|
G|-2--2---------0-0-------0-0------------------2-----------------------------|
D|-3--3----------------------------------------3-----------------------------|
A|--------------3-3----------------------------------------------------------|
E|------------------------3-3------------------------------------------------|

Here with You our hearts will come alive as we declare Your praises. Ohhh ohh 
e|-------------------0---------------------------------3-3-0-----------------|
B|-1--1-1-1-1---1-1----3--3-3--1-1-3-5-5-3-1-0-1-1-1-1-----------------------|
G|-2--2---------0-0-------0-0------------------2-----------------------------|
D|-3--3----------------------------------------3-----------------------------|
A|--------------3-3----------------------------------------------------------|
E|------------------------3-3------------------------------------------------|

Ohh woah oh oh oh woah oh oh as we declare your praises. 
e|---------0-3----------------------------------------------------------------|
B|-1-1-1-1-----3--1-1-5-5-3-1-0-----------------------------------------------|
G|-0-----------0--------------------------------------------------------------|
D|----------------------------------------------------------------------------|
A|-3--------------------------------------------------------------------------|
E|-------------3--------------------------------------------------------------|

Repeat verse pre-chorus and chorus. 


Bridge 4x
e|----------------------------------------------------------------------------|
B|-1-1-1-1---1-1-1-1h3---1-1-1-1-----1-1-1h3----------------------------------|
G|-------2-----------------------2-0------------------------------------------|
D|-------2-------------------------------3------------------------------------|
A|-------0---------3----------------------------------------------------------|
E|-----------------------------3----------------------------------------------|

Repeat Chorus. 


************************************

Matthew 19:26 Psalm 31:14 

Thanks. Please rate guyss. 
Suggest correction
Creating personal tab
Creating personal tab
You can edit any tab online and save it as your Personal.

You can edit, replace or remove any tab part or add personal notes – all changes will be seen only by you.

Personal tabs can be accessed anytime from any device, even offline.
Learn more »
Give kudos to tab author, rate the tab!
1 2 3 4 5
comments
print report bad tab
guest
You may want to rate the tab now too:
select rating
Wanna post a correction for this tab? Suggest correction