Oops, an error
Loading. Please wait.

This Is tab

4 views 1 this week
no commentswrite comment
1 2 3 4 5
3 more votes to show rating
add to favorites
×
Save as Personal and add changes to this tab that will be seen only by you. Learn more ›
×
You can save this tab as Personal to edit and correct it or add notes. All changes will be seen only by you. Learn more »
launch autoscroll
font size
0
reset
how to read this tab
guitar tuner
edit
Autoscroll
slow
fast
+/-
esc
set tempo
stop
Author
Plankeye - This Is
From the album: Strange Exchange
Tabbed by Nick Wallace

Standard tuning: eadgbe

[Intro]
e|------------------------|
B|------------------------|
G|-9----------------------|   4x
D|----9-9-----------------|
A|-7--9-9-----------------|
E|----7-7-0-2-4-2-4-5-4-0-|

[Verse]
e|------------------|
B|------------------|
G|-9----------------|
D|-9---9---11---9---|   4x
A|-7---9---11---9---|
E|-x---7----9---7---|
  E    B   C#   B

It's been a long time,
I'm free to go
Always could walk, no room for growth

 Riff in verse
e|----------------        -------------------|
B|----------------        -------------------|
G|-9---8---9---9^-        -------------------|
D|---9---9---9----   x3   -7-7-8-7-5-7-5-4-2-|
A|----------------        -------------------|
E|----------------        -------------------|

And this is the last piece of me you'll own

[Intro]
e|------------------------|
B|------------------------|
G|-9----------------------| 2x
D|----9-9-----------------|
A|-7--9-9-----------------|
E|----7-7-0-2-4-2-4-5-4-0-|

[Verse]
e|------------------|
B|------------------|
G|-9----------------|
D|-9---9---11---9---|
A|-7---9---11---9---|
E|-x---7----9---7---|
   E   B   C#   B

I never thought I'd dig this hole
that I've found myself in,
when, I don't know
how I ever got here, please
let me know

 Riff in verse (“How I ever got here, please let me go”)
e|----------------        -------------------|
B|----------------        -------------------|
G|-9---8---9---9^-        -------------------|
D|---9---9---9----   x3   -7-7-8-7-5-7-5-4-2-|
A|----------------        -------------------|
E|----------------        -------------------|

how I ever got here, please
let me know

[Chorus]
e|-------------------|
B|-------------------|
G|-9-----------------|
D|-9---9---6---7-----|
A|-7---9---6---7-----|
E|-x---7---4---5-----|
   E   B   G#  A

It's uncertain
beneath these feet but I'm not stopping
It's uncertain
beneath these feet but I'm still walking
It's uncertain
beneath these feet but we're still walking...

[Intro]
e|------------------------|
B|------------------------|
G|-9----------------------| 4x
D|----9-9-----------------|
A|-7--9-9-----------------|
E|----7-7-0-2-4-2-4-5-4-0-|

[Verse]
e|------------------|
B|------------------|
G|-9----------------|
D|-9---9---11---9---|
A|-7---9---11---9---|
E|-x---7----9---7---|
   E   B   C#   B

It's been a long time,
I'm free to go
Always could walk, no room for growth

And this is the last piece of me you'll own

 Riff in verse
e|----------------        -------------------|
B|----------------        -------------------|
G|-9---8---9---9^-        -------------------|
D|---9---9---9----   x3   -7-7-8-7-5-7-5-4-2-|
A|----------------        -------------------|
E|----------------        -------------------|

And this is the last piece of me you'll own

[Chorus]
e|-------------------|
B|-------------------|
G|-9-----------------|
D|-9---9---6---7-----|
A|-7---9---6---7-----|
E|-x---7---4---5-----|
   E   B   G#  A

It's uncertain
beneath these feet but I'm not stopping
It's uncertain
beneath these feet but I'm still walking
It's uncertain
beneath these feet but we're still walking...

[End]
e|-------------------|
B|-9-12-7-------12-7-|
G|--------9-6-9------|
D|-------------------|
A|-------------------|
E|-------------------|

If you could I know you
would yeah yeah



************************************

| x  Dead note
 

************************************

            
            
Suggest correction
Creating personal tab
Creating personal tab
You can edit any tab online and save it as your Personal.

You can edit, replace or remove any tab part or add personal notes – all changes will be seen only by you.

Personal tabs can be accessed anytime from any device, even offline.
Learn more »
Give kudos to tab author, rate the tab!
1 2 3 4 5
comments
print report bad tab
guest
You may want to rate the tab now too:
select rating
Wanna post a correction for this tab? Suggest correction