Oops, an error
Loading. Please wait.

Estrella Fugaz tab

version 2
version 2

Whole song

53 views 3 this week
no commentswrite comment
1 2 3 4 5
3 more votes to show rating
add to favorites
×
Save as Personal and add changes to this tab that will be seen only by you. Learn more ›
×
You can save this tab as Personal to edit and correct it or add notes. All changes will be seen only by you. Learn more »
launch autoscroll
font size
0
reset
how to read this tab
guitar tuner
edit
Autoscroll
slow
fast
+/-
esc
set tempo
stop
bueno ps esta es una cancion ke me bacila =D aca
 les dejo la tablatura real, la otra esta cagada =P
 bueno aca les dejo =D.

E|-----------------|-----------------|--------------------------------|
B|-----------------|-----------------|--------------------------------|
G|-----------------|-----------------|--------------------------------|
D|-----------------|-----------------|--------------------------------|
A|---6---6---6---6-|---4---4---4---4-|---2---2---2---2---4---2---4---2|
E|-7---7---7---7---|-2---2---2---2---|-0---0---0---0---0---0---0---0--|

E|-----------------|-----------------|--------------------------------|
B|-----------------|-----------------|--------------------------------|
G|-----------------|-----------------|--------------------------------|
D|-----------------|-----------------|--------------------------------|
A|---6---6---6---6-|---4---4---4---4-|---2---2---2---2---2---2---2---2|
E|-7---7---7---7---|-2---2---2---2---|-0---0---0---0---0---0---0---0--|

despues viene con la guitarras : D5#, C5#, B5, C5#


E|-----7----------7-----------|
B|-4-5---5-4--4-5---5-4-5-4---|

E|-----7----------7-------------|
B|-4-5---5-4--4-5---5-4-5-7-5-4-|

Acompañado de las mismas notas


E|-----------------------------------|
B|-----------------------------------|
G|-----------------------------------|
D|---8-9----6-8----4-6----6-8---6-8--|
A|-6------4------2------4-----4------|
E|-----------------------------------|x2

Los mismos acordes : D5#, C5#, B5, C5# (a la segunda ya es con muteo)


E|----------------------------------|---------------------------------|
B|----------------------------------|---------------------------------|
G|----------------------------------|---------------------------------|
D|----------------------------------|---------------------------------|
A|---6---6---6---6---6---6---6---6--|---4---4---4---4---4---4---4---4-|
E|-7---7---7---7---7---7---7---7----|-2---2---2---2---2---2---2---2---|

Esto viene con estas notas: D5#, C5#, B5
ala segunda vuelta escuchen bien tienen ke hacer esto:

D5#-F5-F5#    C5#-F5-F5#    B5


Despues viene el rasgeo las mismas notas: D5#, C5#, B5, C5#

A la segunda vuelta viene las notas y esto:

E|---------|--------|--------|----------|
B|---------|--------|--------|----------|
G|---------|--------|--------|----------|
D|---------|--------|--------|----------|
A|----8-9--|---8-9--|---8-9--|-9-8-9-8--|
E|-11------|-9------|-7------|----------|

D5#
  Hoy me siento muy bien

C5#            B5
  Me siento mejor

                C5#
  Viviendo mis sueños limpiandome

D5#
  De drogas y alcohol

C5#           B5
  Emociones hoy

               C5#
  Invaden mi cuerpo me siento bien!!


E|-9---------9------------------7-------------7--|
B|---7-6---7---7-4---4-6-7--4-6----4-6-7--4-6----|
G|-----------------------------------------------|
D|-----------------------------------------------|
A|-----------------------------------------------|
E|-----------------------------------------------| x2
 El punteo va con estas notas: D5#, C5#, B5, C5#


     D5#          C5#
Y quiero estar en un lugar

    B5                C5#
Donde nadie mas pueda ya llegar

     D5#           C5#
Y quiero ser estrella fugaz

    B5                    C5#
Viajar por el tiempo el espacio infinito

E|-7-6------7-6----|
B|-----7--7-----7--|
G|-----------------|
D|-----------------|
A|-----------------|
E|-----------------| (esto viene con el verso,
ya háganlo ustedes pero guíense con eso)

   D5#      C5#
E|-----9---------|
B|-6h7---7-6-7-6-|
G|---------------|
D|---------------|
A|---------------|
E|---------------| x2

    B5                    C5#
Viajar por el tiempo el espacio infinito


 D5#        C5#          B5          C5#
   Y no volver, y no volver, y no volver


            D5#             C5#            B5            C5#
   Y NO VOLVER!! , Y NO VOLVER!!, Y NO VOLVER!!, Y NO VOLVER!!

       D5#
NUNCA MAS!!!!!!


E|-----------------------------------|
B|-----------------------------------|
G|-10/11*--10*--10/11*--10*--10/11*--|
D|--x/-x*---x*---x/-x*---x*---x/-x*--|
A|--8/-9*---8*---8/-9*---8*---8/-9*--|
E|-----------------------------------| x3


E|----------------------------------|
B|----------------------------------|
G|-10/11*--10*--13*--15*--13*--11*--|
D|--x/-x*---x*---x*---x*---x*---x*--|
A|--8/-9*---8*--11*--13*--11*---9*--|
E|----------------------------------|
Va con las mismas notas


D5#
  Hoy me siento muy bien

C5#            B5
  Me siento mejor

                C5#
  Viviendo mis sueños limpiandome

D5#
  De drogas y alcohol

C5#           B5
  Emociones hoy

               C5#
  Invaden mi cuerpo me siento bien!!


E|-9---------9------------------7-------------7--|
B|---7-6---7---7-4---4-6-7--4-6----4-6-7--4-6----|
G|-----------------------------------------------|
D|-----------------------------------------------|
A|-----------------------------------------------|
E|-----------------------------------------------| x2
 El punteo va con estas notas: D5#, C5#, B5, C5#


     D5#          C5#
Y quiero estar en un lugar

    B5                C5#
Donde nadie mas pueda ya llegar

     D5#           C5#
Y quiero ser estrella fugaz

    B5                    C5#
Viajar por el tiempo el espacio infinito

E|-7-6------7-6----|
B|-----7--7-----7--|
G|-----------------|
D|-----------------|
A|-----------------|
E|-----------------|

Ya esta el final =D

Ya bueno ahí ta la tablatura bueno utilícen
LA y boten =D, SI algo no entienden ahí
 ta mi msn ruben0518@ =D bueno chau
Suggest correction
Creating personal tab
Creating personal tab
You can edit any tab online and save it as your Personal.

You can edit, replace or remove any tab part or add personal notes – all changes will be seen only by you.

Personal tabs can be accessed anytime from any device, even offline.
Learn more »
Give kudos to tab author, rate the tab!
1 2 3 4 5
comments
print report bad tab
guest
Wanna post a correction for this tab? Suggest correction