Oops, an error
Loading. Please wait.

Mirai Iro Future Colors Tab

19 views 6 this week
no commentswrite comment
1 2 3 4 5
3 more votes to show rating
add to favorites
launch autoscroll
font size
0
reset
how to read this tab
guitar tuner
Autoscroll
slow
fast
+/-
esc
set tempo
stop
Help us to improve Ultimate-Guitar.com Take our survey!
×
Author
Difficulty
novice
[Intro]
e|-------------------------------|--------0--------10~---|
B|-x-x-17-17-x-x-17-17--17-17-17-|------3-----3----10~---|
G|-x-x-17-17-x-x-17-17--17-17-17-|----2-----2---2--------|
D|-x-x-x--x--x-x-x--x---x--x--x--|--3--------------------|
A|-x-x-15-15-x-x-15-15--15-15-15-|-----------------------|
E|-------------------------------|-----------------------|

e|-----------------------------------------|
B|-----------------------------------------|
G|--14-14-14--12-12-12-x---7-7-7--9-9-9-x--|
D|--x--x--x---x--x--x--x---x-x-x--x-x-x-x--|
A|--12-12-12--10-10-10-x---5-5-5--7-7-7-x--|
E|-----------------------------------------| (x3)

e|---------------------------------|
B|--14-14-x--12-x-9-x-7-x-7-x-9-9--|
G|--x--x--x--x--x-x-x-x-x-x-x-x-x--|
D|--12-12-x--10-x-7-x-5-x-5-x-7-7--|
A|---------------------------------|
E|---------------------------------|

[Verse 1]
 "Hate naki sekai naraba...."
e|---0-0-0-0-0-0-0-0-0-0-0-0-------|
B|---1-1-1-1-1-1-1-1-1-1-1-1-------|
G|---0-0-0-0-0-0-0-0-0-0-0-0-------|
D|---3-3-3-0-0-0-2-2-2-2-2-2-------| 
A|---0-0-0-0-0-0-0-0-0-0-0-0-------|
E|---------------------------------| (x4)

 "Tokihanateta genjitsu de kizamu..."
e|------------------------|
B|-----8---8-10-8-8---8---|
G|---9---9----------9---9-|
D|------------------------|
A|------------------------|
E|------------------------| (x3)

e|---------------------------|
B|---------------------------|
G|--x-x-5-4-x-5-4-x-5\4/5\4--|
D|--x-x-x-x-x-x-x-x-x\x/x\x--|
A|--x-x-3-2-x-3-2-x-3\2/3\2--|
E|---------------------------| (x3)

  "...bokura mitsukeru-"
e|-----------------------------------------|
B|-----------------------------------------|
G|--x-x-5-4-x-5-x-7-7-x-x-x-7-x-x-7-7\-----|
D|--x-x-x-x-x-x-x-x-x-x-x-x-x-x-x-x-x\-----|
A|--x-x-3-2-x-3-x-5-5-x-x-x-5-x-x-5-5\-----|
E|-----------------------------------------|

[Chorus]
 "Yumemiru you ni mezamete..."
e|--------------------------------------|
B|--------------------------------------|
G|--7/9-9-9-9-9-x--12-12-12-x--9-9-9-x--|
D|--x/x-x-x-x-x-x--x--x--x--x--x-x-x-x--|
A|--5/7-7-7-7-7-x--10-10-10-x--7-7-7-x--|
E|--------------------------------------| (x3)

e|-----------------------------------------|
B|-----------------------------------------|
G|--7/9-9-9-9-9-x--14-14-14-x--12-12-12-x--|
D|--x/x-x-x-x-x-x--x--x--x--x--x--x--x--x--|
A|--5/7-7-7-7-7-x--12-12-12-x--10-10-10-x--|
E|-----------------------------------------|

e|--------------------------------------|
B|--------------------------------------|
G|--7/9-9-9-9-9-x--12-12-12-x--9-9-9-x--|
D|--x/x-x-x-x-x-x--x--x--x--x--x-x-x-x--|
A|--5/7-7-7-7-7-x--10-10-10-x--7-7-7-x--|
E|--------------------------------------| (x3)

e|-----------------------------------------|
B|-----------------------------------------|
G|--7/9-9-9-9-9-x--14-14-14-x--12-12-12-x--|
D|--x/x-x-x-x-x-x--x--x--x--x--x--x--x--x--|
A|--5/7-7-7-7-7-x--12-12-12-x--10-10-10-x--|
E|-----------------------------------------|

 "Mirai Iro Zutto bokura wa egaiteku"
e|--0-0-0--0-0-0-0--3-3-3-3-3-3-3-3--x-x-x-x-x-x-x-x-|
B|--1/3-3--3-3-3-3--0-0-0-0-0-0-0-0--8-8-8-8-8-8-8-8-|
G|--3/5-5--5-5-5-5--4-4-4-4-4-4-4-4--x-x-x-x-x-x-x-x-|
D|--3/5-5--5-5-5-5--5-5-5-5-5-5-5-5--9-9-9-9-9-9-9-9-|
A|-----------------------------------7-7-7-7-7-7-7-7-|
E|---------------------------------------------------|

e|-x--x--x--x--x--x--x--x---x--x--x--x--x--x--x--x---x--x--x--x--x--x--x--x---|
B|-12-12-12-12-12-12-12-12--13-13-13-13-13-13-13-13--15-15-15-15-15-15-15-15--|
G|-12-12-12-12-12-12-12-12--12-12-12-12-12-12-12-12--12-12-12-12-12-12-12-12--|
D|-12-12-12-12-12-12-12-12--12-12-12-12-12-12-12-12--12-12-12-12-12-12-12-12--|
A|----------------------------------------------------------------------------|
E|----------------------------------------------------------------------------|

e|-----------------------------------------|
B|-----------------------------------------|
G|--14-14-14--12-12-12-x---7-7-7--9-9-9-x--|
D|--x--x--x---x--x--x--x---x-x-x--x-x-x-x--|
A|--12-12-12--10-10-10-x---5-5-5--7-7-7-x--|
E|-----------------------------------------| (x3)

e|---------------------------------|
B|--14-14-x--12-x-9-x-7-x-7-x-9-9--|
G|--x--x--x--x--x-x-x-x-x-x-x-x-x--|
D|--12-12-x--10-x-7-x-5-x-5-x-7-7--|
A|---------------------------------|
E|---------------------------------|

[Verse 2]
 "Outotsu no tetsu no machi...."
e|---------------------|
B|----1---1---1---1-1--|
G|---------------------|
D|--3---0---2---0------|
A|---------------------|
E|---------------------| (x4)

"Sonna LONLINESS na LONELY nante..."
e|-------------7------------------------------------------------------|
B|--------------------------------------------------------------------|
G|---/12-9-7-9---9-7-9-9/12----12--12p9-----12-12p9------9------------|
D|--------------------------------------12----------12-----12--10--7--|
A|--------------------------------------------------------------------|
E|--------------------------------------------------------------------|

e|---------------------------------------|
B|---------------------------------------|
G|---------------------------------------|
D|---10-9-10-9-10-9-10-9-10-9--9/12~-----|
A|---------------------------------------|
E|---------------------------------------|

e|---------------------------|
B|---------------------------|
G|--x-x-5-4-x-5-4-x-5\4/5\4--|
D|--x-x-x-x-x-x-x-x-x\x/x\x--|
A|--x-x-3-2-x-3-2-x-3\2/3\2--|
E|---------------------------| (x3)

e|---------------------------------------------------------|
B|---------------------------------------------------------|
G|--x-x-5-4-x-5-x-7-7-x-x-x-7-x-x-7-7-x-x-x-7-x-x-7-7\-----|
D|--x-x-x-x-x-x-x-x-x-x-x-x-x-x-x-x-x-x-x-x-x-x-x-x-x\-----|
A|--x-x-3-2-x-3-x-5-5-x-x-x-5-x-x-5-5-x-x-x-5-x-x-5-5\-----|
E|---------------------------------------------------------|

[Chorus]
  "Namida ga itsuka kawaku hodo..."
e|--------------------------------------|
B|--------------------------------------|
G|--7/9-9-9-9-9-x--12-12-12-x--9-9-9-x--|
D|--x/x-x-x-x-x-x--x--x--x--x--x-x-x-x--|
A|--5/7-7-7-7-7-x--10-10-10-x--7-7-7-x--|
E|--------------------------------------| (x3)

e|-----------------------------------------|
B|-----------------------------------------|
G|--7/9-9-9-9-9-x--14-14-14-x--12-12-12-x--|
D|--x/x-x-x-x-x-x--x--x--x--x--x--x--x--x--|
A|--5/7-7-7-7-7-x--12-12-12-x--10-10-10-x--|
E|-----------------------------------------|

e|--------------------------------------|
B|--------------------------------------|
G|--7/9-9-9-9-9-x--12-12-12-x--9-9-9-x--|
D|--x/x-x-x-x-x-x--x--x--x--x--x-x-x-x--|
A|--5/7-7-7-7-7-x--10-10-10-x--7-7-7-x--|
E|--------------------------------------| (x3)

e|-----------------------------------------|
B|-----------------------------------------|
G|--7/9-9-9-9-9-x--14-14-14-x--12-12-12-x--|
D|--x/x-x-x-x-x-x--x--x--x--x--x--x--x--x--|
A|--5/7-7-7-7-7-x--12-12-12-x--10-10-10-x--|
E|-----------------------------------------|

 "Mirai Iro..."
e|--0-0-0--0-0-0-0--3-3-3-3-3-3-3-3--x-x-x-x-x-x-x-x-|
B|--1/3-3--3-3-3-3--0-0-0-0-0-0-0-0--8-8-8-8-8-8-8-8-|
G|--3/5-5--5-5-5-5--4-4-4-4-4-4-4-4--x-x-x-x-x-x-x-x-|
D|--3/5-5--5-5-5-5--5-5-5-5-5-5-5-5--9-9-9-9-9-9-9-9-|
A|-----------------------------------7-7-7-7-7-7-7-7-|
E|---------------------------------------------------|

e|-x--x--x--x--x--x--x--x---x--x--x--x--x--x--x--x---x--x--x--x--x--x--x--x---|
B|-12-12-12-12-12-12-12-12--13-13-13-13-13-13-13-13--15-15-15-15-15-15-15-15--|
G|-12-12-12-12-12-12-12-12--12-12-12-12-12-12-12-12--12-12-12-12-12-12-12-12--|
D|-12-12-12-12-12-12-12-12--12-12-12-12-12-12-12-12--12-12-12-12-12-12-12-12--|
A|----------------------------------------------------------------------------|
E|----------------------------------------------------------------------------|

e|--------------0----------------0-------0------10----10--------10----10-----|
B|------3----------------3-------------3---3-------10--------10----10--------|
G|----2---2---2--------2---2---2-------------2------------10-----------------|
D|--3-------3--------3-------3------3----------------------------------------|
A|---------------------------------------------------------------------------|
E|---------------------------------------------------------------------------|

 "Ashita ni ha waratteiku..."
e|---0--0-------0---------0----------0-------10----10----------------|
B|---3--3-----3---3-----3---3------3---3--------10-------------------|
G|---2--2-----------2---------2----------2---------------------------|
D|---3--0---3----------0---------1-----------------------------------|
A|---0--0------------------------------------------------------------|
E|-------------------------------------------------------------------|

e|------0------0---0--------0-----0---0--------0----------0----------|
B|----3---3------3---3----3---3-----3---3----3---3------3---3--------|
G|----------2-------------------2------------------2----------2------|
D|--3-------------------0------------------1----------0--------------|
A|-------------------------------------------------------------------|
E|-------------------------------------------------------------------|

e|-------------------------------|
B|-x-x-17-17-x-x-17-17--17-17-17-|
G|-x-x-17-17-x-x-17-17--17-17-17-|
D|-x-x-x--x--x-x-x--x---x--x--x--|
A|-x-x-15-15-x-x-15-15--15-15-15-|
E|-------------------------------|

[Chorus]
(modified)
 "Yumemiru you ni mezamete..."
e|--------------------------------------|
B|--------------------------------------|
G|--7/9-9-9-9-9-x--12-12-12-x--9-9-9-x--|
D|--x/x-x-x-x-x-x--x--x--x--x--x-x-x-x--|
A|--5/7-7-7-7-7-x--10-10-10-x--7-7-7-x--|
E|--------------------------------------| (x3)

e|-----------------------------------------|
B|-----------------------------------------|
G|--7/9-9-9-9-9-x--14-14-14-x--12-12-12-x--|
D|--x/x-x-x-x-x-x--x--x--x--x--x--x--x--x--|
A|--5/7-7-7-7-7-x--12-12-12-x--10-10-10-x--|
E|-----------------------------------------|

e|--------------------------------------|
B|--------------------------------------|
G|--7/9-9-9-9-9-x--12-12-12-x--9-9-9-x--|
D|--x/x-x-x-x-x-x--x--x--x--x--x-x-x-x--|
A|--5/7-7-7-7-7-x--10-10-10-x--7-7-7-x--|
E|--------------------------------------| (x3)

e|-----------------------------------------|
B|-----------------------------------------|
G|--7/9-9-9-9-9-x--14-14-14-x--12-12-12-x--|
D|--x/x-x-x-x-x-x--x--x--x--x--x--x--x--x--|
A|--5/7-7-7-7-7-x--12-12-12-x--10-10-10-x--|
E|-----------------------------------------|

 "Omoitsuiteku iro de kurayami datte..."
e|-------------------------------|
B|--------------5----------------|
G|--5-----7-----------7----------|
D|-----7-----7-----7----7--------|
A|-------------------------------|
E|-------------------------------| (x3)

e|---------------5-5-5-5-5-5-5-------|
B|---------------5-5-5-5-5-5-5-------|
G|--5-----7------7-7-7-7-7-7-7-------|
D|-----7-----7---7-7-7-7-7-7-7-------|
A|-----------------------------------|
E|-----------------------------------|

 "Mirai Iro Zutto bokura wa egaiteku"
e|--0-0-0--0-0-0-0--3-3-3-3-3-3-3-3--x-x-x-x-x-x-x-x-|
B|--1/3-3--3-3-3-3--0-0-0-0-0-0-0-0--8-8-8-8-8-8-8-8-|
G|--3/5-5--5-5-5-5--4-4-4-4-4-4-4-4--x-x-x-x-x-x-x-x-|
D|--3/5-5--5-5-5-5--5-5-5-5-5-5-5-5--9-9-9-9-9-9-9-9-|
A|-----------------------------------7-7-7-7-7-7-7-7-|
E|---------------------------------------------------|

e|-x--x--x--x--x--x--x--x---x--x--x--x--x--x--x--x---x--x--x--x--x--x--x--x---|
B|-12-12-12-12-12-12-12-12--13-13-13-13-13-13-13-13--15-15-15-15-15-15-15-15--|
G|-12-12-12-12-12-12-12-12--12-12-12-12-12-12-12-12--12-12-12-12-12-12-12-12--|
D|-12-12-12-12-12-12-12-12--12-12-12-12-12-12-12-12--12-12-12-12-12-12-12-12--|
A|----------------------------------------------------------------------------|
E|----------------------------------------------------------------------------|

 "Kirameki o tashikamete egaiteku"
e|-------------------------------------------------------------------------------------------------|
B|-------------------------------------------------------------------------------------------------|
G|-------------------------------------------------------------------------------------------------|
D|-------------------------------------------------------------------------------------------------|
A|-------------------------------------------------------------------------------------------------|
E|--1-1-1-1-1-1-1-1-1-3-3-3-3-3-3-3-3-3-5-5-5-5-5-5-3-3-3-3-3-3-3-3-1-1-1-1-1-1-1-3-3-3-3-3-3-3-3--|

e|-----------------------------------------|
B|-----------------------------------------|
G|--14-14-14--12-12-12-x---7-7-7--9-9-9-x--|
D|--x--x--x---x--x--x--x---x-x-x--x-x-x-x--|
A|--12-12-12--10-10-10-x---5-5-5--7-7-7-x--|
E|-----------------------------------------| (x3)

e|-------------------------------|
B|-x-x-17-17-x-x-17-17--17-17-17-|
G|-x-x-17-17-x-x-17-17--17-17-17-|
D|-x-x-x--x--x-x-x--x---x--x--x--|
A|-x-x-15-15-x-x-15-15--15-15-15-|
E|-------------------------------|


************************************

| ~  Vibrato
| x  Dead note
| /  Slide up
| \  Slide down
| p  Pull-off

************************************
Suggest correction
Give kudos to tab author, rate the tab!
1 2 3 4 5
comments
print report bad tab
guest
You may want to rate the tab now too:
select rating
Wanna post a correction for this tab? Suggest correction