Oops, an error
Loading. Please wait.

Prende La Luz tab

version 1
version 1

Whole song

434 views 9 this week
no commentswrite comment
1 2 3 4 5
3 more votes to show rating
add to favorites
×
Save as Personal and add changes to this tab that will be seen only by you. Learn more ›
×
You can save this tab as Personal to edit and correct it or add notes. All changes will be seen only by you. Learn more »
launch autoscroll
font size
0
reset
how to read this tab
guitar tuner
edit
Autoscroll
slow
fast
+/-
esc
set tempo
stop
Bueno ps esta es una correcion de la version ya existentelas otra son
buenas pero creo q les faltan algunosdetalles.

Este es el intro esta bastante sencillo para los q empiezan no les
cuesta tanto trabajo ya los que tengan mas experiencia le
pueden adornar un poco con bajos

-1-------1p0-----1--3/5--5-------5p0------5/6-----------3-----0----
-----3---------3-------------3----------3----------1---------------
---2---2-----2-------------3---3------3----------0---0-----0----0--
-0-----------------------3-----------------------------------------
-----------------------------------------------3-------------------
-------------------------------------------------------------------

----------5------
-2-----2--2------
-----0----0------
---2------2------
-0---------------
-----------------

este es el solo con la electrica

-----------------------------------------------------------------
--------5-6/10--8^-8--5--5/6--5/6--5/6------------------------------
---5^------------------------------------------------------------
-----------------------------------------------------------------
-----------------------------------------------------------------
-----------------------------------------------------------------


Dm         Gm
Prende la luz
C         A7           Dm
ke tengo miedo de no verte más
Gm             C
Akariciarte y te vas
A7               Dm           Gm       C
Ké más puedo esperar si tal vez no lo ves
A7
Lo ke hay dentro de mí

Este es un arreglo con las electricas escuchen bien la cacncion para q
vean el tiempo d cada nota

-----------------------------------------------------------
-----------------------------------------------------------
-----------------------------------------------------------
-7-7-7-7-7-7-7-7--7-7-7-7-7-7-7-7--------------------------
-5-5-5-5-5-5-5-5--4-4-4-4-4-4-4-4--------------------------
-----------------------------------5-5-5-5-5-5-5-5---------


Dm         Gm
Prende la luz
C               A7
Kiero tener tu mano
Dm
Y no soltar jamás
Gm                   C
Sentir respirarte otra vez
A7
Kon eso me kedare

Aqui vuvlve a usar el intro de la electrica


Coro:
Dm                 Gm      A7    Dm
Me dejaste otra vez dormir sin ti
                 Gm      A7     Dm
Entre sueños kreí tenerte akí
                 Gm        A7
Desperté y no encontré el sueño akel


Dm           Gm   C           A7
Préndeme la luz, enciéndeme, ayúdame
Dm           Gm   C           A7
Préndeme la luz, aviéntame, ke volaré (x2)
Dm - A7
Eh-Eh- Eheheheh


y al final despues de la primera ronda d teclado la guitarra se queda
haciendo este punteo en la primera cuerda q lo acompaña

-10-10-10-10-10-10--10-10-10-10---------e
----------------------------------------b


bueno ps espero q les guste esta version correjida dudas y comentarios
mandenlos a stan_may10@

            
            
Suggest correction
Creating personal tab
Creating personal tab
You can edit any tab online and save it as your Personal.

You can edit, replace or remove any tab part or add personal notes – all changes will be seen only by you.

Personal tabs can be accessed anytime from any device, even offline.
Learn more »
Give kudos to tab author, rate the tab!
1 2 3 4 5
comments
print report bad tab
guest
Wanna post a correction for this tab? Suggest correction