Oops, an error
Loading. Please wait.

Prende La Luz tab

version 3
version 3

Whole song

89 views 1 this week
no commentswrite comment
1 2 3 4 5
3 more votes to show rating
add to favorites
×
Save as Personal and add changes to this tab that will be seen only by you. Learn more ›
×
You can save this tab as Personal to edit and correct it or add notes. All changes will be seen only by you. Learn more »
launch autoscroll
font size
0
reset
how to read this tab
guitar tuner
edit
Autoscroll
slow
fast
+/-
esc
set tempo
stop
Hola bros como estan quiero dedicarle esta rolita a mi hermano
cris q tuvo confianza en mi cuando le mostre esta version
un saludo a: koko, chorrito y al famoso andy
detenidamente me he puesto a oir el intro de
esta cancion y algunos solos, pienso q esta version se acerca mas
espero q para ustedes asi sea

intro:
e/-1---1-0--1-3/5-5-3-3-5-6-----------------5--
B/---3-----2--------------------5-----2-----0--
G/--2-2---2-------------------5---5-----2---0--
D/-0-----0---------5---------5-5-5-5/2-2-2-----
A/--------------------------3---3-----0--------
E/---------------------------------------------

luego 1 intro solo con distorcion asendiente s) y desendiente p)

G/-9s)-10---10---10s)-14p)-12p)-9s)-10p)-9s)10p)-9s)-10-p)-9v

si gustan entre versos para lograr el efecto y el sonido del
teclado arpegea las notas ejemplo:
       Dm       Gm     etc...
e/-1-----1------3----3------
B/---3-----3------3----3----
G/--2-2---2-2----3-3--3-3---
D/--------------------------
A/--------------------------
E/--------------------------

al final de la cancion se oye un outro del piano es asi:
se toca 2 veces y luego se rasgea despacio (Dm)

e/-1---1---0---0---0--------
B/--------------------------
G/-----------------2--------
D/-0---0---0---0------------
A/--------------------------
E/--------------------------

Graxxias bros espero q les guste los invito a ver mis demas
colaboraciones proximamente les tengo la de Calida estrella

            
            
Suggest correction
Creating personal tab
Creating personal tab
You can edit any tab online and save it as your Personal.

You can edit, replace or remove any tab part or add personal notes – all changes will be seen only by you.

Personal tabs can be accessed anytime from any device, even offline.
Learn more »
Give kudos to tab author, rate the tab!
1 2 3 4 5
comments
print report bad tab
guest
Wanna post a correction for this tab? Suggest correction