Oops, an error
Loading. Please wait.

Safe To Say intro tab

version 1
version 1

Intro

Whole song

11,282 views 3 this week
6 commentsread comments
1 2 3 4 5
x 3
add to favorites
×
Save as Personal and add changes to this tab that will be seen only by you. Learn more ›
×
You can save this tab as Personal to edit and correct it or add notes. All changes will be seen only by you. Learn more »
launch autoscroll
font size
0
reset
how to read this tab
guitar tuner
edit
Autoscroll
slow
fast
+/-
esc
set tempo
stop
Safe to Say – Playjerise                  (Capo 3rd Fret)

e|--2h3---x----------x-----------x--2---------x-------|
b|------3-x--3-------x-----------x--3---------x-------|
g|--------x--0-------x—-2p0------x------------x-------|
d|--2-----x----------x-----------x--0---------x-------|
a|--------x--3-------x-----------x------------x-------|
e|--------x----------x--3--------x------------x-------|

e|--2h3---x----------x-----------x------------x-------|
b|------3-x--3-------x-----------x--3---------x-------|
g|--------x--0-------x—-2p0------x--0---------x-------|
d|--2-----x----------x-----------x------------x-------|
a|--------x--3-------x-----------x------------x-------|
e|--------x----------x--3--------x--3---------x-------|

e|--2h3---x----------x-----------x--2---------x-------|
b|------3-x--3-------x-----------x--3---------x-------|
g|--------x--0-------x—-2p0------x------------x-------|
d|--2-----x----------x-----------x--0---------x-------|
a|--------x--3-------x-----------x------------x-------|
e|--------x----------x--3--------x------------x-------|

e|---2---3------3---3-------------|
b|-----------3------3-------------|
g|-----------0------0-------------|
d|---2--------------2-------------|
a|-----------3------3-------------|
e|--------------------------------|

H= Hammer on
X= Palm Mute

if anyone has more playjerise tabs please send them to me at morpheus_the_awesome@hotmail.com

www.playjerise.com.au
Suggest correction
Creating personal tab
Creating personal tab
You can edit any tab online and save it as your Personal.

You can edit, replace or remove any tab part or add personal notes – all changes will be seen only by you.

Personal tabs can be accessed anytime from any device, even offline.
Learn more »
Give kudos to tab author, rate the tab!
1 2 3 4 5
comments
print report bad tab
6 comments total. Showing first comments.
0 reply
Kirdy 20 Mar 27, 2008 02:40 PM

perfect!
great aussie band

0 reply
Lukus the man 21 Oct 03, 2008 02:52 AM

in the second part the last bit should look like this

x------------x-------|
x--3---------x-------|
x--0---------x-------|
x------------x-------|
x------------x-------|
x--0---------x-------|

0 reply
pratty 10 Dec 19, 2008 06:49 PM

any chance of the rest of the song being posted by someone?
such a good song

guest
Wanna post a correction for this tab? Suggest correction