Oops, an error
Loading. Please wait.

Saw You Live Tab

503 views 1 this week
no commentswrite comment
1 2 3 4 5
please rate
add to favorites
launch autoscroll
font size
0
reset
how to read this tab
guitar tuner
Tab Pro tools
  • play this tab
  • loop segment
  • change instrument
  • show fretboard
  • metronome
×
Best way to learn
"Saw You Live"
Autoscroll
slow
fast
+/-
esc
set tempo
stop
Contributor
-------------------------------------------------------------------------------
                             "Saw You" Guitar Solo - Playjerise
-------------------------------------------------------------------------------
Tabbed by: Ook Tong
Email: oh_ok27@yahoo.com.au

yeah this is my favourite "playjerise" song - haha yeah i was figuring out
the chords to this AWESOME song and just spontaneously figured how to play 
the solo :] pretty sure it's accurate... ENJOY! :D

the solo should start right after the last chorus and is played through the
bridge all the way to the end of the song. the other guitarist (also capo2nd) 
plays C and A2 as you play the solo.

Tuning: Capo 2nd

e|-7-5----------------7-5----------------7-5----------------7-5----------------|
B|----8-7----------------8-7----------------8-7----------------8-7-------------|
G|--------4--4-2-4-----------4--4-2-4-----------4--4-2-4-----------4--4-2-4----|
D|--------------------------------------------------------------------------2--|
A|-----------------------------------------------------------------------------|
E|-----------------------------------------------------------------------------|

Love me with your eyes...                             Love me with-
e|-7-5-----10h12--10----7-5----------------------7-5-------------------|
B|----8-7-------12---------8-7----------------------8-7--5-5-3-5/8-5---|
G|-----------------------------4--4-2-4/7-4----------------------------|
D|---------------------------------------------------------------------|
A|---------------------------------------------------------------------|
E|---------------------------------------------------------------------|

     your eyes...         Love me with your eyes...   
e|-7-5-----10h12--10-----7-5----------------------7-5-------------------|
B|----8-7-------12----------8-7----------------------8-7--5-5-3-5/8-5---|
G|------------------------------4--4-2-4--------------------------------|
D|----------------------------------------------------------------------|
A|----------------------------------------------------------------------|
E|----------------------------------------------------------------------|
   
      Love me with your eyes...            Your eyes...
e|-7-5-----10h12--10-----7-5--------------------------------------|
B|----8-7-------12-----------8-7-------------7-----7-----7--------|
G|--------------12---------------4--4-2-4/7-4-4-7-4-4-7-4-4-7-4---|
D|----------------------------------------------------------------|
A|----------------------------------------------------------------|
E|----------------------------------------------------------------|


yeah i'm TRYING to figure out what the second guitarist plays at the 
beginning of the song - it seems a tad difficult when i'm playing it my way
- there should be an easier method to play it... if you can figure it out - 
please email me the AWESOME tabs :] cheers!

| \  slide down
| h  hammer-on
| p  pull-off
| ~  vibrato
| +  harmonic
| x  Mute note
===============================================================================
comments
We did not receive enough feedback on this tab! Please rate:
print report bad tab
1 2 3 4 5
I want to post or [tab]
guest
You may want to rate the tab now too:
select rating
Please do not post tabs as comments. Select "correction" instead!