Oops, an error
Loading. Please wait.

Break The Spell Bass Tab

16 views 1 this week
no commentswrite comment
1 2 3 4 5
3 more votes to show rating
add to favorites
launch autoscroll
font size
0
reset
guitar tuner
Autoscroll
slow
fast
+/-
esc
set tempo
stop
Help us to improve Ultimate-Guitar.com Take our survey!
×
Author
Difficulty
novice
Tabbed by: 6METAL6BASSIST6
E-mail: petergriffinav@gmail.com

Tuning: EADG

G|----------------------------------------------------------------|
D|----------------------------------------------------------------|
A|----------------------------------------------------------------|
E|----------------------------------------------------------------|

G|----------------------------------------------------------------|
D|----------------------------------------------------------------|
A|----------------------------------------------------------------|
E|5---------------------------------------------------------------|

G|----------------------------------------------------------------|
D|------------------------------------------------4---5---4-------|
A|----------------3---------------5-----------5-------------------|
E|5-----------5-----------5---------------------------------------|

G|----------------------------------------------------------------|
D|------------------------------------------------4---5---7-------|
A|----------------3---------------5-----------5-------------------|
E|5-----------5-----------5---------------------------------------|

0:23

G|----------------------------------------------------------------|
D|------------------------------------------------4---------------| x2
A|----------------3---------------5-----------5-----------5-------|
E|5-----------5-----------5---------------------------------------|

G|----------------------------------------------------------------|
D|------------------------------------------------4---5---4-------|
A|----------------3---------------5-----------5---------------5---|
E|5-----------5-----------5---------------------------------------|

G|----------------------------------------------------------------|
D|------------------------------------------------4---5---7-------|
A|----------------3---------------5-----------5-------------------|
E|5-----------5-----------5---------------------------------------|

0:43

G|----------------------------------------------------------------|
D|------------------------------------------------4---------------| x3
A|----------------3---------------5-----------5-----------5-------|
E|5-----------5-----------5---------------------------------------|

G|----------------------------------------------------------------|
D|------------------------------------------------4---5---4-------|
A|----------------3---------------5-----------5---------------5---|
E|5-----------5-----------5---------------------------------------|

1:06

G|----------------------------------------------------------------|
D|----------------5-----------------------------------------------|
A|------------------------------------------------4---------------|
E|0-----------0-----------0-------5-----------5-----------5-------|

G|----------------------------------------------------------------|
D|----------------5-----------------------------------------------|
A|------------------------------------------------4---5---4-------|
E|0-----------0-----------0-------5-----------5---------------5---|

G|----------------------------------------------------------------|
D|----------------5-----------------------------------------------|
A|------------------------------------------------4---------------|
E|0-----------0-----------0-------5-----------5-----------5-------|

G|----------------------------------------------------------------|
D|----------------------------------------------------------------|
A|3-----------3---3---5---3-------2-----------2---5-------2-------|
E|----------------------------------------------------------------|

G|----------------------------------------------------------------|
D|----------------------------------------------------------------|
A|3-----------3---3---5---3-------2-----------2-/-5-------2-------|
E|----------------------------------------------------------------|

1:33

G|----------------------------------------------------------------|
D|------------------------------------------------4---5---4-------|
A|----------------3---------------5-----------5---------------5---|
E|5-----------5-----------5---------------------------------------|

G|----------------------------------------------------------------|
D|------------------------------------------------4---5---7---4---|
A|----------------3---------------5-----------5-------------------|
E|5-----------5-----------5---------------------------------------|

1:44

G|----------------------------------------------------------------|
D|------------------------------------------------4---------------| x2
A|----------------3---------------5-----------5-----------5-------|
E|5-----------5-----------5---------------------------------------|

G|----------------------------------------------------------------|
D|------------------------------------------------4---5---4-------|
A|----------------3---------------5-----------5---------------5---|
E|5-----------5-----------5---------------------------------------|

G|----------------------------------------------------------------|
D|------------------------------------------------4---5---7-------|
A|----------------3---------------5-----------5-------------------|
E|5-----------5-----------5---------------------------------------|

2:06

G|----------------------------------------------------------------|
D|------------------------------------------------4---------------| x2
A|----------------3---------------5-----------5-----------5-------|
E|5-----------5-----------5---------------------------------------|

G|----------------------------------------------------------------|
D|------------------------------------------------4---5---4-------|
A|----------------3---------------5-----------5---------------5---|
E|5-----------5-----------5---------------------------------------|

G|----------------------------------------------------------------|
D|------------------------------------------------4---5---7-------|
A|----------------3---------------5-----------5-------------------|
E|5-----------5-----------5---------------------------------------|

2:28

G|----------------------------------------------------------------|
D|----------------5-----------------------------------------------|
A|------------------------------------------------4---------------|
E|0-----------0-----------0-------5-----------5-----------5-------|

G|----------------------------------------------------------------|
D|----------------5-----------------------------------------------|
A|------------------------------------------------4---5---4-------|
E|0-----------0-----------0-------5-----------5---------------5---|

G|----------------------------------------------------------------|
D|----------------5-----------------------------------------------|
A|------------------------------------------------4---------------|
E|0-----------0-----------0-------5-----------5-----------5-------|

G|----------------------------------------------------------------|
D|----------------------------------------------------------------|
A|3-----------3---3---5---3-------2-----------2-/-5-------2-------|
E|----------------------------------------------------------------|

G|----------------------------------------------------------------|
D|----------------------------------------------------------------|
A|3-----------3---3---5---3-------2-----------2---5-------2-------|
E|----------------------------------------------------------------|

2:56

G|----------------------------------------------------------------|
D|------------------------------------------------4---5---4-------|
A|----------------3---------------5-----------5---------------5---|
E|5-----------5-----------5---------------------------------------|

G|----------------------------------------------------------------|
D|------------------------------------------------4---5---7-------|
A|----------------3---------------5-----------5-------------------|
E|5-----------5-----------5---------------------------------------|

G|----------------------------------------------------------------|
D|------------------------------------------------4---5---4-------|
A|----------------3---------------5-----------5---------------5---|
E|5-----------5-----------5---------------------------------------|

G|--------------------------------|
D|--------------------------------|
A|--------------------------------|
E|5-------------------------------|
Suggest correction
Give kudos to tab author, rate the tab!
1 2 3 4 5
comments
print report bad tab
guest
You may want to rate the tab now too:
select rating
Wanna post a correction for this tab? Suggest correction