Oops, an error
Loading. Please wait.

The Story Bass Tab

7 views 1 this week
no commentswrite comment
1 2 3 4 5
3 more votes to show rating
add to favorites
launch autoscroll
font size
0
reset
guitar tuner
Autoscroll
slow
fast
+/-
esc
set tempo
stop
Help us to improve Ultimate-Guitar.com Take our survey!
×
Author
Difficulty
novice
Tabbed by: 6METAL6BASSIST6
E-mail: petergriffinav@gmail.com

Tuning: EADG

G|------------------------------------------------------------------------|
D|9---7---------------------------7-----------------------7---------------|
A|--------10--------------------------10--8-----------8-----------8-------|
E|------------------------------------------------------------------------|

G|------------------------------------|
D|------------------------------------|
A|7-----------------------------------|
E|------------------------------------|

0:09

G|----------------------------------------------------------------|
D|7-----------7---7---------------5-----------5---5---------------|
A|--------------------------------------------------------2-------|
E|----------------------------------------------------5-------3---|

G|----------------------------------------------------------------|
D|--------------------------------------------------------6-------|
A|----------------------------------------------------------------|
E|1-----------1---1---------------0-----------0---0---------------|

G|----------------------------------------------------------------|
D|7-----------7---7---------------5-----------5---5---------------|
A|--------------------------------------------------------2-------|
E|----------------------------------------------------5-------3---|

G|----------------------------------------------------------------|
D|----------------------------------------4---4---6---6-----------|
A|----------------------------------------------------------------|
E|1-----------1---1---------------0---0-------------------0---0---|

0:31

G|----------------------------------------------------------------|.
D|7-----------7---7---------------5-----------5---5---------------|.
A|----------------------------------------------------------------|.
E|----------------------------------------------------------------|.
                                                                   . x2
G|----------------------------------------------------------------|.
D|--------------------------------------------------------6-------|.
A|----------------------------------------------------------------|.
E|1-----------1---1---------------0-----------0---0---------------|.

0:53

G|----------------------------------------------------------------|
D|7-----------7---7---------------5-----------5---5---------------|
A|--------------------------------------------------------2-------|
E|----------------------------------------------------5-------3---|

G|----------------------------------------------------------------|
D|--------------------------------------------------------6-------|
A|----------------------------------------------------------------|
E|1-----------1---1---------------0-----------0---0---------------|

G|----------------------------------------------------------------|
D|7-----------7---7---------------5-----------5---5---------------|
A|--------------------------------------------------------2-------|
E|----------------------------------------------------5-------3---|

G|----------------------------------------------------------------|
D|----------------------------------------4---4---6---6-----------|
A|----------------------------------------------------------------|
E|1-----------1---1---------------0---0-------------------0---0---|

1:15

G|----------------------------------------------------------------|.
D|7-----------7---7---------------5-----------5---5---------------|.
A|----------------------------------------------------------------|.
E|----------------------------------------------------------------|.
                                                                   . x2
G|----------------------------------------------------------------|.
D|--------------------------------------------------------6-------|.
A|----------------------------------------------------------------|.
E|1-----------1---1---------------0-----------0---0---------------|.

1:36

G|----------------------------------------------------------------|
D|7-----------7---7---------------5-----------5---5---------------|
A|--------------------------------------------------------2-------|
E|----------------------------------------------------5-------3---|

G|----------------------------------------------------------------|
D|--------------------------------------------------------6-------|
A|----------------------------------------------------------------|
E|1-----------1---1---------------0-----------0---0---------------|

G|----------------------------------------------------------------|
D|7-----------7---7---------------5-----------5---5---------------|
A|--------------------------------------------------------2-------|
E|----------------------------------------------------5-------3---|

G|----------------------------------------------------------------|
D|----------------------------------------4---4---6---6-----------|
A|----------------------------------------------------------------|
E|1-----------1---1---------------0---0-------------------0---0---|

1:57

G|----------------------------------------------------------------|
D|7-----------7---7---------------5-----------5---5---------------|
A|----------------------------------------------------------------|
E|----------------------------------------------------------------|

G|----------------------------------------------------------------|
D|--------------------------------------------------------6-------|
A|----------------------------------------------------------------|
E|1-----------1---1---------------0-----------0---0---------------|

G|----------------------------------------------------------------|
D|7-----------7---7---------------5-----------5---5---------------|
A|----------------------------------------------------------------|
E|----------------------------------------------------------------|

G|----------------------------------------------------------------|
D|--------------/-7-----------------------------------------------|
A|----------------------------------------------------------------|
E|1-----------1-----------1-------0-------------------------------|
Suggest correction
Give kudos to tab author, rate the tab!
1 2 3 4 5
comments
print report bad tab
guest
You may want to rate the tab now too:
select rating
Wanna post a correction for this tab? Suggest correction