Oops, an error
Loading. Please wait.

Frakasse Smala Tab

112 views 1 this week
no commentswrite comment
1 2 3 4 5
please rate
add to favorites
launch autoscroll
font size
0
reset
how to read this tab
guitar tuner
Autoscroll
slow
fast
+/-
esc
set tempo
stop
Help us to improve Ultimate-Guitar.com Take our survey!
×
Author
Tuning: B F# B E G# C#


C#-----------------------------------------------|
G#-----------------------------------------------|
E-----------1/2----------------------------------|
B---3-3--3---------------------------------------|
F#--3-3--3---------------------------------------|
B---3-3--3---------------------------------------|


C#--------------------------------------------------------------|
G#--------------------------------------------------------------|
E---------------------------------------8-8-8-8---------8-8-8-8-|
B----------------------------------0-0--7-7-7-7--0-0-0--7-7-7-7-|
F#-----6-6-6-6-------6-6-6-6-------0-0--6-6-6-6--0-0-0--6-6-6-6-|
B--0-0---------0-0-0---------------0-0-----------0-0-0----------|


C#--5h6p5p3---5h6p5-5--|--5h6p5h8-5h6p5h8--------|
G#---------------------|-------------------3*-3*-|
E----------------------|-------------------------|
B----------------------|-------------------------|
F#---------------------|-------------------------|
B----------------------|-------------------------|


C#-9-10-----10----7-9---15--17--|
G#---------7------------12------|
E--7-7----7-------4/6---12------|
B-------------------------------|
F#------------------------------|
B-------------------------------|


C#------------------------|
G#------------------------|
E-------------------------|
B---0-0-0--0-0-0-0---4-3--|
F#--0-0-0--0-0-0-0--------|
B---0-0-0--0-0-0-0--------|
Suggest correction
Give kudos to tab author, rate the tab!
1 2 3 4 5
comments
print report bad tab
guest
You may want to rate the tab now too:
select rating
Wanna post a correction for this tab? Suggest correction