Oops, an error
Loading. Please wait.

Hypnotized intro tab

version 1
version 1

Intro

Whole song

by Plies
4,613 views 1 this week
no commentswrite comment
1 2 3 4 5
3 more votes to show rating
add to favorites
×
Save as Personal and add changes to this tab that will be seen only by you. Learn more ›
×
You can save this tab as Personal to edit and correct it or add notes. All changes will be seen only by you. Learn more »
launch autoscroll
font size
0
reset
how to read this tab
guitar tuner
edit
Autoscroll
slow
fast
+/-
esc
set tempo
stop
Difficulty
intermediate
Hypnotized by Plies ft. Akon
Not the exact tuning of the song, but my favorite way to play it.

KEY
h=hammer on
/=slide up
x=dead note

CHORDS

e|---7---|---5---|---3---|---10---|
B|---8---|---3---|---5---|---10---|
G|---7---|---2---|---4---|---x----|
D|---9---|---4---|---5---|---7----|
A|---7---|---2---|---3---|---9----|
E|-------|-------|-------|---7----|

INTRO

e|-------------------------5----------3---------------------|
B|----------8h9-8----------3----------5---------------------|
G|-------7--7---7--------2----------4-------7/9-7/9-7-------|
D|-----9---------------4----------5-------------------9-----|
A|---7---------------2----------3---------------------------|
E|----------------------------------------------------------|

e|-------------------------10--------3----2----0------------|
B|----------8h9-8----------10-------5----3----1-----1/3-----|
G|-------7--7---7----------x-------4----2----0--------------|
D|-----9-----------------7--------5----4----2---------------|
A|---7-----------------9---------3----2----0------0---------|
E|-------------------7--------------------------------------|
Suggest correction
Creating personal tab
Creating personal tab
You can edit any tab online and save it as your Personal.

You can edit, replace or remove any tab part or add personal notes – all changes will be seen only by you.

Personal tabs can be accessed anytime from any device, even offline.
Learn more »
Give kudos to tab author, rate the tab!
1 2 3 4 5
comments
print report bad tab
guest
Wanna post a correction for this tab? Suggest correction