Oops, an error
Loading. Please wait.

Oh Darling Tab

version 2
version 2

Whole song

78,641 views 54 this week
13 commentsread comments
1 2 3 4 5
x 66
add to favorites
launch autoscroll
font size
0
reset
how to read this tab
guitar tuner
Autoscroll
slow
fast
+/-
esc
set tempo
stop
Help us to improve Ultimate-Guitar.com Take our survey!
×
Author
Capo
7th fret
----------------------------------------------------------------------------
                          Oh darling - Plug in Stereo
----------------------------------------------------------------------------
Tabbed by: Me youtube.com/some1green

Performed by me: http://www.youtube.com/watch?v=pz_6IfrgBjQ

Tuning: standard (capo on 7)

IF YOUR GOING TO PLAY THIS SONG, MAKE SURE YOU GIVE ME CREDIT FOR THE TAB!!!
IF YOUR GOING TO PLAY THIS SONG, MAKE SURE YOU GIVE ME CREDIT FOR THE TAB!!!
IF YOUR GOING TO PLAY THIS SONG, MAKE SURE YOU GIVE ME CREDIT FOR THE TAB!!!
IF YOUR GOING TO PLAY THIS SONG, MAKE SURE YOU GIVE ME CREDIT FOR THE TAB!!!
IF YOUR GOING TO PLAY THIS SONG, MAKE SURE YOU GIVE ME CREDIT FOR THE TAB!!!
IF YOUR GOING TO PLAY THIS SONG, MAKE SURE YOU GIVE ME CREDIT FOR THE TAB!!!
IF YOUR GOING TO PLAY THIS SONG, MAKE SURE YOU GIVE ME CREDIT FOR THE TAB!!!


I spent a lot of time learning this song so DO NOT try to take any credit 
at all!!! It's my tab. lol have fun :)

PLEASE RATE, I WANT THIS TO BE BETTER RATED BECAUSE IT IS SO ACCURATE, IF NOT 
EXACTLY CORRECT TO THE REAL SONG. THANKS

e|---------------9h10p9p7-------------------------9h10/12--12/14-7-|
B|---10---10-10-----------8/10\8p7---10---10-10--------------------|
G|---7----7--7-----------------------7----7--7---------------------|
D|--------------7-------------------------------7--------7---------|
A|-10------------------------------10------------------------------|
E|------10------------------------------10-------------------------|

e|---------------9h10p9p7-------------------------9h10/12--12/14-7-|
B|---10---10-10-----------8/10\8p7---10---10-10--------------------|
G|---7----7--7-----------------------7----7--7---------------------|
D|--------------7-------------------------------7--------7---------|
A|-10------------------------------10------------------------------|
E|------10------------------------------10-------------------------|

e|---------------9h10p9p7-------------------------9h10/12--12/14-7-|
B|---10---10-10-----------8/10\8p7---10---10-10--------------------|
G|---7----7--7-----------------------7----7--7---------------------|
D|--------------7-------------------------------7--------7---------|
A|-10------------------------------10------------------------------|
E|------10------------------------------10-------------------------|


e|-------------------10-10-10-10--10-10-9-7------------------------|
B|--/10-7-----------------------------------10-10/12-10-7----------|
G|-------9-9/11-7-----------------------------------------9-9/11-7-|
D|-----------------------------------------------------------------|
A|-----------------------------------------------------------------|
E|-----------------------------------------------------------------|

e|---------------9h10p9p7-------------------------9h10/12--12/14-7-|
B|---10---10-10-----------8/10\8p7---10---10-10--------------------|
G|---7----7--7-----------------------7----7--7---------------------|
D|--------------7-------------------------------7--------7---------|
A|-10------------------------------10------------------------------|
E|------10------------------------------10-------------------------|

e|---------------9h10p9p7-------------------------9h10/12--12/14-7-|
B|---10---10-10-----------8/10\8p7---10---10-10--------------------|
G|---7----7--7-----------------------7----7--7---------------------|
D|--------------7-------------------------------7--------7---------|
A|-10------------------------------10------------------------------|
E|------10------------------------------10-------------------------|

e|-------------------------------------------------------------|
B|-10-10----------10-10----7-7----10-10----------10-10------7--|
G|-7----7---------7----7---7--7---7----7---------7----7-----7--|
D|-7-----9-7h9p7--9-----9--7---7--7-----9-7h9p7--9-----9----7--|
A|-9--------------10-------9------9--------------10-----10--9--|
E|-------------------------10-------------------------------10-|

e|---------------------------------------------------------------------|
B|---10--10---10--10---10--10---10--10--10--10--10--10--10--10--10--10-|
G|---7---7----7---7----7---7----7---7---7---7---7---7---7---7---7---7--|
D|------------------------9--------9-------7-------7-------------------|
A|------9--------9---10-------10-------9-------9-----------7-------7---|
E|-10-------10-----------------------------------------9-------9-------|

e|------------------------------------------------------------------------|
B|---10--10---10--10---10--10---10--10--10--10--10--10--10--10--10--10-10-|
G|---7---7----7---7----7---7----7---7---7---7---7---7---7---7---7---7--7--|
D|------------------------9--------9-------7-------7-------------------7--|
A|------9--------9---10-------10-------9-------9-----------7-------7---9--|
E|-10-------10-----------------------------------------9-------9-------10-|

e|---------------9h10p9p7-------------------------9h10/12--12/14-7-|
B|---10---10-10-----------8/10\8p7---10---10-10--------------------|
G|---7----7--7-----------------------7----7--7---------------------|
D|--------------7-------------------------------7--------7---------|
A|-10------------------------------10------------------------------|
E|------10------------------------------10-------------------------|

e|---------------9h10p9p7-------------------------9h10/12--12/14-7-|
B|---10---10-10-----------8/10\8p7---10---10-10--------------------|
G|---7----7--7-----------------------7----7--7---------------------|
D|--------------7-------------------------------7--------7---------|
A|-10------------------------------10------------------------------|
E|------10------------------------------10-------------------------|

e|------------------------|
B|-10--10--7---10--10--7--|
G|-7---7---7---7---7---7--|
D|-7---9---7---7---9---7--|
A|-9---10--9---9---10--9--|
E|---------10----------10-|

e|---------------------------------------------------------------------|
B|---10--10---10--10---10--10---10--10--10--10--10--10--10--10--10--10-|
G|---7---7----7---7----7---7----7---7---7---7---7---7---7---7---7---7--|
D|------------------------9--------9-------7-------7-------------------|
A|------9--------9---10-------10-------9-------9-----------7-------7---|
E|-10-------10-----------------------------------------9-------9-------|

e|------------------------------------------------------------------------|
B|---10--10---10--10---10--10---10--10--10--10--10--10--10--10--10--10-10-|
G|---7---7----7---7----7---7----7---7---7---7---7---7---7---7---7---7--7--|
D|------------------------9--------9-------7-------7-------------------7--|
A|------9--------9---10-------10-------9-------9-----------7-------7---9--|
E|-10-------10-----------------------------------------9-------9-------10-|

e|-------------12-7------------------|
B|--7------10--10-7--7------10--10>--|
G|--7--7---7---9--7--7--7---7---7>---|
D|--9--7---7---------9--7---7---7>---|
A|--9--9---7---------9--9---7---7>---|
E|-----10---------------10------9>---|


e|-------------------------------------------------------|
B|-10-10--10-10--10-10--10-10--10-10--10-10--10-10--10>--|
G|-7--7---7--7---7--7---7--7---7--7---7--7---7--7---7>---|
D|-7--7---9--9---7--7---7--7---7--7---9--9---7--7---7>---|
A|-9--9---10-10--9--9---7--7---9--9---10-10--9--9---7>---|
E|-10-10----------------9--9---10-10----------------9>---|

e|-------------------------------------------|
B|--10>-10>-10>-10>-10>-10>-10>-10>--10------|
G|--7>--7>--7>--7>--7>--7>--7>--7>---7-------|
D|--7>--9>--7>--7>--7>--9>--7>--7>---7-------|
A|--9>--10>-9>--7>--9>--10>-9>--7>---9--7h9--|
E|--10>---------9>--10>---------9>---10------|

************************************

| >   strum (too lazy to type all the chords out)
| /   slide up
| \   slide down
| h   hammer-on
| p   pull-off
| ~   vibrato
| +   harmonic
| x   Mute note
| b   Bend
| pb  Pre-bend
| br  Bend release
| pbr Pre-bend release
| brb Bend release bend 

************************************
************************************
************************************
Suggest correction
comments
print report bad tab
13 comments total. Showing first comments.
0 reply
ManOfSwag 10 Apr 28, 2011 02:56 AM

Why this tab doesn't have 5 stars is a mystery to me. I was not able to find any flaws. Nice work tabber1

-1 reply
rrfan1 31 Jul 10, 2011 07:32 PM

Amazing job!!!
Absolutely perfect and very helpful.
Thanks!

-1 reply
Shirauk 10 Nov 14, 2011 01:58 AM

Spot on! 5 STARS!!!

guest
You may want to rate the tab now too:
select rating
Wanna post a correction for this tab? Suggest correction