Oops, an error
Loading. Please wait.

Oh Darling Tab

version 3
version 3

Whole song

12,239 views 3 this week
no commentswrite comment
1 2 3 4 5
excellent!
x 3
add to favorites
launch autoscroll
font size
0
reset
how to read this tab
guitar tuner
Autoscroll
slow
fast
+/-
esc
set tempo
stop
Help us to improve Ultimate-Guitar.com Take our survey!
×
Author
Difficulty
Capo
intermediate
2nd fret
I love this song so I thought I would make an easy 'ish' tab that was correct.
the main thing I change was the high part on the e string. I got rid of that
completely and added something that sounds just as great

Capo 2nd Fret

Verse 1
|---3-x---3--3-----3---3---3---3----3-x---3--3-----3---3---3---3--|
|---1-x---1--1-----1---1---0---0/1--1-x---1--1-----1---1---0---0/1|
|-----x----------0---0---0---0--------x----------0---0---0---0----|  x6
|-3---x---------------------------3---x---------------------------|
|-----x-3------3----------------------x-3------3------------------|
|-----x-------------------------------x---------------------------|

Bridge
          F       Em  G             F        Em  G
|---------1-------0---1-------------1--------0---1---|
|---------1-------0---3-------------1--------0---3---|
|---------2-------0---4-------------2--------0---4---|
|---------3-------2---5-------------3--------2---5---|
|---------3-------2---5-------------3--------2---5---|
|---------1-------0---3-------------1--------0---3---|
 I really want to      come out and tell you

Chorus
|---3---3---3---3----3---3---3---3---3---3---3---3----3---3---3---3-|
|---1---1---1---1----1---1---1---1---1---1---1---1----1---1---1---1-|
|----------------------2-------2-------0-------0--------------------|
|-----2-------2----3-------3-------2-------2------------0-------0---|  x2
|-3-------3-----------------------------------------2-------2-------|
|-------------------------------------------------------------------|

Verse 2
|---3-x---3--3-----3---3---3---3----3-x---3--3-----3---3---3---3--|
|---1-x---1--1-----1---1---0---0/1--1-x---1--1-----1---1---0---0/1|
|-----x----------0---0---0---0--------x----------0---0---0---0----|  x6
|-3---x---------------------------3---x---------------------------|
|-----x-3------3----------------------x-3------3------------------|
|-----x-------------------------------x---------------------------|

Bridge
          F       Em  G             F        Em  G
|---------0-------0---0-------------0--------0---0---|
|---------1-------0---3-------------1--------0---3---|
|---------2-------0---4-------------2--------0---4---|
|---------3-------2---5-------------3--------2---5---|
|---------3-------2---5-------------3--------2---5---|
|---------1-------0---3-------------1--------0---3---|
 I really want to      come out and tell you

Chorus
|---3---3---3---3----3---3---3---3---3---3---3---3----3---3---3---3-|
|---1---1---1---1----1---1---1---1---1---1---1---1----1---1---1---1-|
|----------------------2-------2-------0-------0--------------------|
|-----2-------2----3-------3-------2-------2------------0-------0---|  x2
|-3-------3-----------------------------------------2-------2-------|
|-------------------------------------------------------------------|

Bridge #2

  Am                C              F   C  G
|-0-----------------0--------------1---0--3--|
|-1-----------------1--------------1---1--3--|
|-2-----------------0--------------2---0--4--|  
|-2-----------------2--------------3---2--5--|
|-0-----------------3--------------3---3--5--|
|-0-----------------0--------------1---0--3--|
  So I gotta ask you, I cant be afraid 
         Am                       C            F    G
|--------0------------------------0------------1----3--|
|--------1------------------------1------------1----3--|
|--------2------------------------0------------2----4--|  
|--------2------------------------2------------3----5--|
|--------0------------------------3------------3----5--|
|--------0------------------------0------------1----3--|
  I gotta take a chance at love So what do you say 

Chorus
|---3---3---3---3----3---3---3---3---3---3---3---3----3---3---3---3-|
|---1---1---1---1----1---1---1---1---1---1---1---1----1---1---1---1-|
|----------------------2-------2-------0-------0--------------------|
|-----2-------2----3-------3-------2-------2------------0-------0---|  x4
|-3-------3-----------------------------------------2-------2-------|
|-------------------------------------------------------------------|

Ending Chord (strum this and let it ring)
|-3-|
|-1-|
|-0-|
|-2-|
|-3-|
|---|

If you like than rate it! I sure had fun learning this song and I hope you do too.
----J-rod----
Suggest correction
Give kudos to tab author, rate the tab!
1 2 3 4 5
comments
print report bad tab
guest
You may want to rate the tab now too:
select rating
Wanna post a correction for this tab? Suggest correction