Oops, an error
Loading. Please wait.

Sad World Bass Tab

655 views 1 this week
no commentswrite comment
1 2 3 4 5
please rate
add to favorites
launch autoscroll
font size
0
reset
guitar tuner
Autoscroll
slow
fast
+/-
esc
set tempo
stop
Help us to improve Ultimate-Guitar.com Take our survey!
×
Difficulty
Tuning
intermediate
D A D G B E
first verse (w/sansamp and rat pedal)

G---------------------------------------------------------------------|
D---------------------------------------------------------------------| X2
A-5h7-7-7-5h7p5-5-----5-6-7-77-7-77-----------------------------------|
D-----------------7-5---------------5h7-7-7-5h7p5-5-6-7-7-8-9-99-9-99-|

G----------------5-7-9-8-7-5------------------------------------|
D--------5h7p5-7------------7-5---------------------------------|
A-5h7-7-7----------------------7--------------------------------|
D--------------------------------5h7-7-7-5h7p5-5-6-7-7-8-9/-0-2-|
Suggest correction
Give kudos to tab author, rate the tab!
1 2 3 4 5
comments
print report bad tab
guest
You may want to rate the tab now too:
select rating
Please do not post tabs as comments. Select "correction" instead!