Oops, an error
Loading. Please wait.

Thoughts In Transit Tab

1,399 views 6 this week
2 commentsread comments
1 2 3 4 5
1 last vote to show rating
add to favorites
launch autoscroll
font size
0
reset
how to read this tab
guitar tuner
Autoscroll
slow
fast
+/-
esc
set tempo
stop
Help us to improve Ultimate-Guitar.com Take our survey!
×
Author
These are the chords you play
Listen to the song for timing and etc...



            V--V listen for these two's timing
e|-0--1---------------------------|
B|-1--3--3--1--1------------------|
G|-2--2--4--0--0------------------|
D|-2--0--5--2--0------------------|
A|-0--------3--2------------------|
E|--------------------------------|



e|-0--1--0-----------------------|
B|-1--3--0--5--------------------|
G|-2--2--1--4--------------------|
D|-2--0--2--6--------------------|
A|-0-----2--0--------------------|
E|-------0-----------------------|

Play that twice, but on the 4th time play this instead

e|-0--0--0----------------------|
B|-1--0--1----------------------|
G|-2--1--2----------------------|
D|-2--2--2----------------------|
A|-0--2--0----------------------|
E|----0-------------------------|

Then that all again, afterwards playing

e|-------------------------------|
B|--5--5--3--1-------------------|
G|--4--5--4--2-------------------|
D|--6--7--5--3-------------------|
A|--7----------------------------|
E|-------------------------------|


Right after he says "I can write whatever I please" go into the 3rd and 4th chords, then 
repeat without the 1st one, listen for timing.


I made the tab after learning it from FiveironFlores's guitar cover on Youtube.
Suggest correction
Give kudos to tab author, rate the tab!
1 2 3 4 5
comments
print report bad tab
2 comments total.
0 reply
Adriatic 203 Nov 18, 2012 03:44 PM

5stars for accuracy, however you could have matched the chords and text to make it easier for everyone :)

0 reply
xxshawn 42 Dec 21, 2013 03:45 AM

Last chord of the second set of chords doesn't sound right to me. After the E I feel like it should slide up to an E7, that's what sounds right to me anyway.

e--0--------
B--0--------
G--7--------
D--6--------
A--7--------
E--0--------

guest
You may want to rate the tab now too:
select rating
Wanna post a correction for this tab? Suggest correction