Oops, an error
Loading. Please wait.

Dear Mr President tab

version 1
version 1

Whole song

Interactive

by P!nk
208,643 views 60 this week
8 commentsread comments
1 2 3 4 5
x 21
add to favorites
×
Save as Personal and add changes to this tab that will be seen only by you. Learn more ›
×
You can save this tab as Personal to edit and correct it or add notes. All changes will be seen only by you. Learn more »
launch autoscroll
font size
0
reset
how to read this tab
guitar tuner
edit
Autoscroll
slow
fast
+/-
esc
set tempo
stop
Chords:

G       320033
G/Em    2x0033
G2      2x0233
Em7     x22033
C       030210
Am/C    020010
Am      002210
Cadd9   032033
        


[Intro]

e|---3---3---3---3---3-------3---3---3---3---3--------|
B|---3---3---3---3---3-------3---3---3---3---3--------|
G|---0---0h2-0h2-0---0h2p0---0---0h2-0h2-0---0h2p0----|
D|---0---0---0---0---0-------0---0---0---0---0--------|
A|---2---x---x---x---x-------x---x---x---x---x--------|
E|---3-----------------------2------------------------|

e|---3---3---3---3---3--------3----------|
B|---3---3---3---3---3--------3----let---|
G|---0---0h2-0h2-0---0h2p0----0h2--ring--|
D|---2---x---x---x---x--------0----------|
A|---2---2---2---2---2--------x----------|
E|----------------------------2----------|


[Verse]

e|---3---3---3---3---3-------3---3---3---3---3--------|
B|---3---3---3---3---3-------3---3---3---3---3--------|
G|---0---0h2-0h2-0---0h2p0---0---0h2-0h2-0---0h2p0----|
D|---0---0---0---0---0-------0---0---0---0---0--------|
A|---2---x---x---x---x-------x---x---x---x---x--------|
E|---3-----------------------2------------------------|

e|---3---3---3---3---3--------3----------|
B|---3---3---3---3---3--------3----let---|
G|---0---0h2-0h2-0---0h2p0----0h2--ring--|
D|---2---x---x---x---x--------0----------|
A|---2---2---2---2---2--------x----------|
E|----------------------------2----------|

Dear Mr. President,
Come take a walk with me
Let's pretend we're just two people
and you're not better than me
I'd like to ask you some questions
if we can speak honestly


[Pre-Chorus]

C      Am/C  Am                        G                      G2  
What do you feel when you see all the homeless on the street?
C     Am/C  Am               G                       G2
Who do you pray for at night before you go to sleep?
C     Am/C   Am                       Em7      G2
What do you feel when you look in the mirror?
        Cadd9
Are you proud?


[Chorus]

G                          G2              Am  Am/C  C
How do you sleep while the rest of us cry?
G                        G2           Am      Am/C  C  
How do you dream when a mother has no chance to say goodbye?
G                         G2        Am  Am/C  C
How do you walk with your head held high?
             Em7     G2        Cadd9  (hold)
Can you even look me in the eye

And tell me why


[Interlude]

e|---3---3---3---3---3-------3---3---3---3---3--------|
B|---3---3---3---3---3-------3---3---3---3---3--------|
G|---0---0h2-0h2-0---0h2p0---0---0h2-0h2-0---0h2p0----|
D|---0---0---0---0---0-------0---0---0---0---0--------|
A|---2---x---x---x---x-------x---x---x---x---x--------|
E|---3-----------------------2------------------------|

e|---3---3---3---3---3--------3----------|
B|---3---3---3---3---3--------3----let---|
G|---0---0h2-0h2-0---0h2p0----0h2--ring--|
D|---2---x---x---x---x--------0----------|
A|---2---2---2---2---2--------x----------|
E|----------------------------2----------|


Small riff to start…

e|---3---3---3--------------------|
B|---3---3---3----------0h2-0-----|
G|---0---0h2-0h2----0h2-------h2--|
D|---0---0---0--------------------|
A|---2---x---x--------------------|
E|---3----------------------------|


[Verse]

e|---3---3---3---3---3-------3---3---3---3---3--------|
B|---3---3---3---3---3-------3---3---3---3---3--------|
G|---0---0h2-0h2-0---0h2p0---0---0h2-0h2-0---0h2p0----|
D|---0---0---0---0---0-------0---0---0---0---0--------|
A|---2---x---x---x---x-------x---x---x---x---x--------|
E|---3-----------------------2------------------------|

e|---3---3---3---3---3--------3----------|
B|---3---3---3---3---3--------3----let---|
G|---0---0h2-0h2-0---0h2p0----0h2--ring--|
D|---2---x---x---x---x--------0----------|
A|---2---2---2---2---2--------x----------|
E|----------------------------2----------|

Dear Mr. President Were you a lonely boy?
Are you a lonely boy? Are you a lonely boy?
How can you say? No child is left behind.
We're not dumb and we're not blind.
They're all sitting in your cells
While you pave the road to hell


[Pre-Chorus]

C      Am/C  Am                        G                      G2
What kind of father would take his own daughter's rights away?
C          Am/C  Am                        G                      G2
And what kind of father might hate his own daughter if she were gay?
C          Am/C  Am               G           G2
I can only imagine what the first lady has to say
              Em7                       Am
You've come a long way from whiskey and cocaine!


[Chorus]

G                          G2              Am  Am/C  C
How do you sleep while the rest of us cry?
G                        G2           Am      Am/C  C  
How do you dream when a mother has no chance to say goodbye?
G                         G2        Am  Am/C  C
How do you walk with your head held high?
             Em7     G2        Cadd9  
Can you even look me in the eye



[Bridge]

                     Em7        G/Em (step-up) G
Let me tell you bout hard work
        Am          Am/C        C
Minimum wage with a baby on the way
                     Em7        G/Em (step-up) G
Let me tell you bout hard work
                Am             Am/C             C
Rebuilding your house after the bombs took them away
                     Em7        G/Em (step-up) G
Let me tell you bout hard work
           Am           Am/C       C
Building a bed out of a card board box
                     Em7        G/Em (step-up) G
Let me tell you bout hard work,    hard work
     Am        Am/C      C
Hard work
                            Em7        G/Em  G
You don't know nothing bout hard work   hard work
     Am        Am/C      C
Hard work,                   Ohhhhh!


[Verse]

e|---3---3---3---3---3-------3---3---3---3---3--------|
B|---3---3---3---3---3-------3---3---3---3---3--------|
G|---0---0h2-0h2-0---0h2p0---0---0h2-0h2-0---0h2p0----|
D|---0---0---0---0---0-------0---0---0---0---0--------|
A|---2---x---x---x---x-------x---x---x---x---x--------|
E|---3-----------------------2------------------------|

e|---3---3---3---3---3--------3----------|
B|---3---3---3---3---3--------3----let---|
G|---0---0h2-0h2-0---0h2p0----0h2--ring--|
D|---2---x---x---x---x--------0----------|
A|---2---2---2---2---2--------x----------|
E|----------------------------2----------|
How do you sleep at night?
How do you walk with your head held high?
Dear Mr. President,
you'd never take a walk with me
    
would you?



Do your part – QUIT EATING FISH!!!



************************************

| x  Dead note
| h  Hammer-on
| p  Pull-off

************************************
Suggest correction
Creating personal tab
Creating personal tab
You can edit any tab online and save it as your Personal.

You can edit, replace or remove any tab part or add personal notes – all changes will be seen only by you.

Personal tabs can be accessed anytime from any device, even offline.
Learn more »
comments
print report bad tab
8 comments total. Showing first comments.
+1 reply
lluv2rock 10 Sep 23, 2007 01:59 PM

its sounds like a pretty kewl tab.....

-1 reply
ash_guitarist1 72 Sep 24, 2007 05:33 PM

everybody look at my tab!! its so much better it has solos n all. its dear mr president ver 2 tab :)

+1 reply
pinkroxrachsox 10 Oct 09, 2007 02:20 AM

non accurate

guest
You may want to rate the tab now too:
select rating
Wanna post a correction for this tab? Suggest correction