Oops, an error
Loading. Please wait.

Dear Mr President Tab

version 2
version 2

Whole song

by P!nk
109,616 views 102 this week
6 commentsread comments
1 2 3 4 5
accurate
x 12
add to favorites
launch autoscroll
font size
0
reset
how to read this tab
guitar tuner
Tab Pro tools
  • play this tab
  • loop segment
  • change instrument
  • show fretboard
  • metronome
×
Best way to learn
"Dear Mr President"
Autoscroll
slow
fast
+/-
esc
set tempo
stop
Contributor
hey guys im ash.. this is my first tab so i hope you like it. this is a very easy and 
song to play.. if u wanna ask me anything its lil_mauritian@hotmail.com

capo 3rd fret

intro

e--------------------------------------------------------------------------|
b--------------------------------------------------------------------------|
g----0h2--0h2-----2-0-0----0-2----------0h2-0h2------2-0-0----0-2----------|
d----0---------------------0------------0---------------------0------------|
a--------------------------------------------------------------------------|
e-3------------3--------------------0--------------0-----------------------|


e--------------------------------------------------------------------------|
b--------------------------------------------------------------------------|
g----0h2--0h2-----2-0-0----0-2----------0h2-0h2------2-0-0----0-2----------|
d----0---------------------0------------0---------------------0------------|
a--------------------------------------------------------------------------|
e-3------------3--------------------0--------------0-----------------------|


e--------------------------------------------------------------------------|
b--------------------------------------------------------------------------|
g----0h2--0h2-----2-0-0----0-2----------0h2-0h2------2-0-0----0-2----------|
d----0---------------------0------------0---------------------0------------|
a--------------------------------------------------------------------------|
e-3------------3--------------------0--------------0-----------------------|


e--------------------------------------------------------------------------|
b--------------------------------------------------------------------------|
g----0h2--0h2-----2-0-0----0-2----------0h2-0h2------2-0-0----0-2----------|
d----0---------------------0------------0---------------------0------------|
a--------------------------------------------------------------------------|
e-3------------3--------------------0--------------0-----------------------|

chords
am          c                         g               d
What do you feel when you see all the homeless on the street?
am          c          g                      d
Who do you pray for at night before you go to sleep?
am          c                         g
What do you feel when you look in the mirror?
d
Are you proud?

g                          d          am/c
How do you sleep while the rest of us cry?
g                       d             am            c
How do you dream when a mother has no chance to say goodbye?
g                         d         am/c
How do you walk with your head held high?
em                   d
Can you even look me in the eye

And tell me why?

verse
e--------------------------------------------------------3-5-3--3s5--3s5--|
b-------------------------------------3-3s5--5b-3-5-3-3-------------------|
g----0h2--0h2-----2-0-0----0-2----2s4-------------------------------------|
d----0---------------------0----------------------------------------------|
a-------------------------------------------------------------------------|
e-3------------3----------------------------------------------------------|

Dear Mr. President,
d
Were you a lonely boy?
em
Are you a lonely boy?
c
Are you a lonely boy?
g
How can you say
g
No child is left behind?
d
We're not dumb and we're not blind.
em
They're all sitting in your cells
a
While you pave the road to hell.


am           c                         g                d
What kind of father would take his own daughter's rights away?
am               c                        g                     d
And what kind of father might hate his own daughter if she were gay?
am         c                      g          d
I can only imagine what the first lady has to say
am                                      d
You've come a long way from whiskey and cocaine.

g                          d          am/c
How do you sleep while the rest of us cry?
g                       d             am            c
How do you dream when a mother has no chance to say goodbye?
g                        d          am/c
How do you walk with your head held high?
em                    d
Can you even look me in the eye?

d                     em/d/g
Let me tell you 'bout hard work
am                             c
Minimum wage with a baby on the way
em                    d/g
Let me tell you 'bout hard work
am                                             c
Rebuilding your house after the bombs took them away
em                   d/g
Let me tell you 'bout hard work
am                               c
Building a bed out of a cardboard box
em                    d/g
Let me tell you 'bout hard work
g
Hard work
d
Hard work
d                            em/d/g
You don't know nothing 'bout hard work
g
Hard work
c
Hard work

Oh

e--333----333---------------3-5--5s7--5s7-------------------------------|
b--333----333----------3-5--------------------------------3-------------|
g------------------2s4------------------------------0-2s4----4s2--0-----|
d--222----222-----------------------------------0h2---------------------|
a--333----333-----------------------------------------------------------|
e-----------------------------------------------------------------------|

   Dear Mr. President, You'd never take a walk with me.Would you?

e--------------------------------------------------------------------------|
b--------------------------------------------------------------------------|
g----0h2--0h2-----2-0-0----0-2----------0h2-0h2------2-0-0----0-2----------|
d----0---------------------0------------0---------------------0------------|
a--------------------------------------------------------------------------|
e-3------------3--------------------0--------------0-----------------------|
comments
print report bad tab
6 comments total. Showing first comments.
-1 reply
pinkroxrachsox wrote on October 10 2007, 03:47 am

hi ash ur ab is cool plz visit my tab of eagle rock!

-1 reply
pinkroxrachsox wrote on October 10 2007, 07:56 am

pop goes the weasle!

+1 reply
thehater wrote on October 27 2007, 07:54 am

this tab is the best i ever had been see of pink

I want to post or [tab]
guest
You may want to rate the tab now too:
select rating
Please do not post tabs as comments. Select "correction" instead!