Oops, an error
Loading. Please wait.

Dear Mr President Tab

version 3
version 3

Whole song

Interactive

by P!nk
49,047 views 9 this week
3 commentsread comments
1 2 3 4 5
accurate
x 5
add to favorites
launch autoscroll
font size
0
reset
how to read this tab
guitar tuner
Tab Pro tools
  • play this tab
  • loop segment
  • change instrument
  • show fretboard
  • metronome
×
Best way to learn
"Dear Mr President"
Autoscroll
slow
fast
+/-
esc
set tempo
stop
Contributor
Capo
3rd fret
Song: Dear Mr. President
Artist: P!nk
Album: I'm Not Dead
Year: 2007
Tunning: Standard
Capo 3rd Fret.

Ok, this tab is for the way they done it on AOL its the same as the original
but with out the complex bits after the first and last chorus, just youtube it ;)

Oh and no stum patterns, you can figure them out your self.

 Intro/Verse1:
  G                                         F#/G
|---------------------------------------------------------|
|-3----3----3-------3-----------3-------------------------|
|-0----0h2--0h2-----0h2p0-0-----0h2-----------------------|
|-0----0----0------0---------0--0-------------------------|
|-2-------------------------------------------------------|
|-3--3-----------3---------------2-2-2-2-2-2-2-2-2--------|

 Em7                                    F#/G
|--------------------------------------------------------|
|-3---3----3------3-----------3--------------------------|
|-0---0h2--0h2----0h2p0-0-----0h2------------------------|
|-2---0----0-----0---------0--0--------------------------|
|-2------------------------------------------------------|
|-0-0-----------0-------------2--2-2-2-2-2-2-2-----------|

Pre Chorus:
"What do you feel... / Who Do You pray for at night..."
  C       ?        Am         G         F#/G
|-0-------0--------0----------3----------3------------------------|
|-1-------1--------1----------3----------3------------------------|
|-0-------0--------2----------0----------0------------------------|  x2
|-2-------0--------2----------0----------0------------------------|
|-3-------2--------0----------2----------x------------------------|
|-----------------------------3----------2------------------------|

"What Do You feel When you look in the Mirror?"
  C       ?       Am          
|-0-------0--------0----------------------------------------0-----|
|-1-------1--------1---------------3--------3--3--------3---------|
|-0-------0--------2-------------0--0--0----0--0------0----0------|
|-2-------0--------2-----------0-----0------0--0-----2------------|
|-3-------2--------0---------2--------------x--x----3-------------|
|---------------------------3---------------2--2------------------|


Chorus1:         _
"How Do You Sleep...."
  G       D         Cadd9      Cadd9
|-3-------2-----------3----0--------------------------------------|
|-3-------3-----------3----3-----3--------------------------------|
|-0-------2-----------0----0-----0--------------------------------|
|-0-------0-----------2----2-----2--------------------------------|
|-2-------0-----------3----3-----3--------------------------------|
|-3-------2-------------------------------------------------------|

                    _
"How Do You Dream When..."
  G        D         Am      ?      C
|-3--------2----------0------0------0-----------------------------|
|-3--------3----------1------1------1-----------------------------|
|-0--------2----------2------0------0-----------------------------|
|-0--------0----------2------0------2-----------------------------|
|-2--------0----------0------2------3-----------------------------|
|-3--------2------------------------------------------------------|

                   _
"How Do You Walk With Your Head Held High?"
  G        D       Cadd9     Cadd9
|-3--------2----------3---0---------------------------------------|
|-3--------3----------3---3----3----------------------------------|
|-0--------2----------0---0----0----------------------------------|
|-0--------0----------2---2----2----------------------------------|
|-2--------0----------3---3----3----------------------------------|
|-3--------2------------------------------------------------------|

                      _
"Can You Even Look Me in the eye?"
  Em       F#/G       Cadd9
|-0-------3---------3---------------------------------------------|
|-0-------3---------3---------------------------------------------|
|-0-------0---------0---------------------------------------------|
|-2-------0---------2---------------------------------------------|
|-2-------x---------3---------------------------------------------|
|-0-------2-------------------------------------------------------|

Verse2: Do as many times as needed
|---------------------------------------------------------|
|-3----3----3--------3----------3-------------------------|
|-0----0h2--0h2-----0h2p0-0-----0h2-----------------------|
|-0----0----0------0---------0--0-------------------------|
|-2-------------------------------------------------------|
|-3--3-----------3---------------2-2-2-2-2-2-2-2-2--------|

|--------------------------------------------------------|
|-3---3----3-------3----------3--------------------------|
|-0---0h2--0h2----0h2p0-0-----0h2------------------------|
|-2---0----0-----0---------0--0--------------------------|
|-2------------------------------------------------------|
|-0-0-----------0-------------2--2-2-2-2-2-2-2-----------|


Pre Chorus 2:
"What kind of father/ What kind of father might hate his own daughter if she were gay?"
  C       ?       Am          G         F#/G
|-0-------0--------0----------3----------3------------------------|
|-1-------1--------1----------3----------3------------------------|
|-0-------0--------2----------0----------0------------------------|  x2
|-2-------0--------2----------0----------0------------------------|
|-3-------2--------0----------2----------x------------------------|
|-----------------------------3----------2------------------------|

I can only imagine what the first lady has to say
  C       ?        Am         G        F#/G
|-0-------0--------0----------3----------3------------------------|
|-1-------1--------1----------3----------3------------------------|
|-0-------0--------2----------0----------0------------------------| 
|-2-------0--------2----------0----------0------------------------|
|-3-------2--------0----------2----------x------------------------|
|-----------------------------3----------2------------------------|

"You've Come a long way     From whiskey and cocain"
  Em                                       A 
|-0----------------------------------------0--------------------|
|-0----------------------------------------2--------------------|
|-0----------------------------------------2--------------------| 
|-2----------------------------------------2--------------------|
|-2----------------------------------------0--------------------|
|-0-------------------------------------------------------------|


Chorus2:        _
"How Do You Sleep...."
  G       D        Cadd9      Cadd9
|-3-------2-----------3----0--------------------------------------|
|-3-------3-----------3----3-----3--------------------------------|
|-0-------2-----------0----0-----0--------------------------------|
|-0-------0-----------2----2-----2--------------------------------|
|-2-------0-----------3----3-----3--------------------------------|
|-3-------2-------------------------------------------------------|

                    _
"How Do You Dream When..."
 G         D         Am      ?      C
|-3--------2----------0------0------0-----------------------------|
|-3--------3----------1------1------1-----------------------------|
|-0--------2----------2------0------0-----------------------------|
|-0--------0----------2------0------2-----------------------------|
|-2--------0----------0------2------3-----------------------------|
|-3--------2------------------------------------------------------|

                   _
"How Do You Walk With Your Head Held High?"
 G         D        Cadd9     Cadd9
|-3--------2----------3---0---------------------------------------|
|-3--------3----------3---3----3----------------------------------|
|-0--------2----------0---0----0----------------------------------|
|-0--------0----------2---2----2----------------------------------|
|-2--------0----------3---3----3----------------------------------|
|-3--------2------------------------------------------------------|

                      _
"Can You Even Look Me in the eye?"
 Em       F#/G     Cadd9
|-0-------3---------3---------------------------------------------|
|-0-------3---------3---------------------------------------------|
|-0-------0---------0---------------------------------------------|
|-2-------0---------2---------------------------------------------|
|-2-------x---------3---------------------------------------------|
|-0-------2-------------------------------------------------------|

Bridge:
"Let Me Tell Ya bout hard work"
Em7      F#/G    G
|-3--------3-----3------------------------------------------------|
|-3--------3-----3------------------------------------------------|
|-0--------0-----0------------------------------------------------|
|-2--------0-----0------------------------------------------------|
|-2--------x-----2------------------------------------------------|
|-0--------2-----3------------------------------------------------|

"Minimum wagge with a baby on the way"
 Am       ?      C
|-0-------0------0------------------------------------------------|
|-1-------1------1------------------------------------------------|
|-2-------0------0------------------------------------------------|
|-2-------0------2------------------------------------------------|
|-0-------2------3------------------------------------------------|
|-----------------------------------------------------------------|

Repeat those to chord progressions for how ever many times.. then it ends strumming the C chord.

Then back to the Intro
  G                                         F#/G
|--------------------------------------------------------|
|-3----3----3-------3-----------3------------------------|
|-0----0h2--0h2-----0h2p0-0-----0h2----------------------|
|-0----0----0------0---------0--0------------------------|
|-2------------------------------------------------------|
|-3--3-----------3---------------2-2-2-2-2-2-2-2-2-------|

 Em7                                    F#/G
|--------------------------------------------------------|
|-3---3----3-------3----------3--------------------------|
|-0---0h2--0h2----0h2p0-0-----0h2------------------------|
|-2---0----0-----0---------0--0--------------------------|
|-2------------------------------------------------------|
|-0-0-----------0-------------2--------------------------|

Then its the End!! have fun with it!! :)
Also Check out justins myspace his a wicked guitarist ;)
www.myspace.com/justinderricomusic
comments
print report bad tab
3 comments total.
+1 reply
Jessi7 wrote on December 18 2008, 01:43 pm

Hallo, perfect tab, thank you much!

0 reply
schalkerandy wrote on July 14 2009, 04:01 pm

great tab nice work

0 reply
Becca_353 wrote on July 31 2012, 11:37 pm

? This chord is C/B
|-0---
|-1---
|-0---
|-0---
|-2---
|-----

I want to post or [tab]
guest
You may want to rate the tab now too:
select rating
Please do not post tabs as comments. Select "correction" instead!