Oops, an error
Loading. Please wait.

Don't Let Me Get Me Tab

version 2
version 2

Solo

Whole song

Interactive

by P!nk
3,059 views 1 this week
no commentswrite comment
1 2 3 4 5
please rate
add to favorites
launch autoscroll
font size
0
reset
how to read this tab
guitar tuner
Tab Pro tools
  • play this tab
  • loop segment
  • change instrument
  • show fretboard
  • metronome
×
Best way to learn
"Don't Let Me Get Me"
Autoscroll
slow
fast
+/-
esc
set tempo
stop
Contributor
I made few months ago and I\'m a totally novice at guitar (now, I have been playing for 
months), but sounds good. ^_^


|-------11-------------8-----8-----------------------------------------------|
|-----------11--9--8~-----8-----8~-------------------------------------------|
|--4/9------------------------------10—10--10/12--10--8--8~-------8h9--8~~~--|
|------------------------------------------------------------8h9-------------|
|----------------------------------------------------------------------------|
|----------------------------------------------------------------------------|


|-------------------------------------11h13--11h13--11~~----------------------|
|---------------------13--11~--11h13------------------------------------------|
|--10/12--10--8--12~----------------------------------------------------------|
|-----------------------------------------------------------------------------|
|-----------------------------------------------------------------------------|
|-----------------------------------------------------------------------------|
comments
We did not receive enough feedback on this tab! Please rate:
print report bad tab
1 2 3 4 5
I want to post or [tab]
guest
You may want to rate the tab now too:
select rating
Please do not post tabs as comments. Select "correction" instead!