Oops, an error
Loading. Please wait.

Don't Let Me Get Me Tab

version 1
version 1

Solo

Whole song

Interactive

by P!nk
18,023 views 9 this week
7 commentsread comments
1 2 3 4 5
accurate
x 6
add to favorites
launch autoscroll
font size
0
reset
how to read this tab
guitar tuner
Tab Pro tools
  • play this tab
  • loop segment
  • change instrument
  • show fretboard
  • metronome
Autoscroll
slow
fast
+/-
esc
set tempo
stop
Pink - Don't Let Me Get Me
--------------------------

VERSE/CHORUS
|-----------------|
|-----------------|
|-----------------|
|-8---5-----------|
|-6---3---8---6---|
|---------6---4---|

PRE CHORUS
|-----------------|
|-----------------|
|-----------------|
|-8---------------|
|-6---6---4---6---|
|-----8---6---8---|


SOLO
----
(Slide up to the first tone, use a lot of vibrato)

|-11----------8---8-----------------------|
|----11---------8---8---------------------|
|-------9-8-------------------------------|
|----------------------10-10-12-10---8-8--|
|-----------------------------------------|
|-----------------------------------------|

The solo is actually played simultaneously by 2 guitarrs
and the other one goes something like this

|---------------13-11---------------------|
|--------13-11----------------------------|
|-12-12-----------------------------------|
|-----------------------------------------|
|-----------------------------------------|
|-----------------------------------------|
comments
print report bad tab
7 comments total. Showing first comments.
0 reply
blllink_rox264 wrote on June 15 2004, 12:00 am

i like this song. dunno bout the tabs

0 reply
deluge_nl wrote on March 8 2007, 09:40 am

I think you made a type error with the solo.. the 10 10 12 10 should be on the g.. pretty good tab otherwise

+1 reply
deluge_nl wrote on March 8 2007, 02:14 pm

i checked it by playing it, and it should be like this:

|-11----------8---8-----------------------|
|----11--9-8----8---8---------------------|
|----------------------10-10-12-10---8-8--|
|-----------------------------------------|
|-----------------------------------------|
|-----------------------------------------|

I want to post or [tab]
guest
You may want to rate the tab now too:
select rating
Please do not post tabs as comments. Select "correction" instead!