Oops, an error
Loading. Please wait.

Fuckin Perfect Tab

version 3
version 3

Whole song

by P!nk
6,974 views 3 this week
no commentswrite comment
1 2 3 4 5
please rate
add to favorites
launch autoscroll
font size
0
reset
how to read this tab
guitar tuner
Tab Pro tools
  • play this tab
  • loop segment
  • change instrument
  • show fretboard
  • metronome
×
Best way to learn
"Fuckin Perfect"
Autoscroll
slow
fast
+/-
esc
set tempo
stop
Contributor
Difficulty
intermediate
===============================================================================
--the following tabs are copied--i just want to share this tab to all of you--
                       -- original by Mr. Ryan Pino --
     -- i didn't post this for fame, just want you to play it too---
                             -- E-N-J-O-Y --
===============================================================================

Yen D \m/

Fuckin' Perfect - Pink
                                                        Pinoguy321 Cover


E||-----------------------|--------------------|-----------|
B||-----------------------|--------------------|-----------|
G||-----------------------|--------------------|-----------|
D||-----------------------|-----------------5--|--5--------|
A||-----------5--7--5-----|-----------5--7-----|-----5--7--|
E||--3--5--7-----------5--|--3--5--7-----------|-----------|
 
 

-----------------------|--------------------|---------------|
-----------------------|--------------------|---------------|
-----------------------|--------------------|---------------|
-----------------------|-----------------5--|--5--------5-4-|
-----------5--7--5-----|-----------5--7-----|-----5--7------|
--3--5--7-----------5--|--3--5--7-----------|---------------|
 
 

--------------------------|--------------------|--------------------------|
--------------------------|--------------------|--------------------------|
--------------------------|--------------------|--------------------------|
--5-5-5-7-5-4-5-5-5-7-5-4-|--5-5-5-7-5-----5-4-|--5-5-5-7-5-4-5-5-5-7-5-4-|
--------------------------|------------5-------|--------------------------|
--------------------------|--------------8-----|--------------------------|
 
 

----------------|--------------------------------------|--------------|
----------------|--------------------------------------|--------------|
----------------|--------------------------------------|--------------|
--5-5-5-7-5-----|--5-7-5-7-7s-9-7br-5-5-7-5-7-7s-9-5-7-|--5---5-7-5---|
------------5---|--------------------------------------|----7-------7-|
--------------8-|--------------------------------------|--------------|
 
 

-----------------------------------|----------------------|
-----------------------------------|----------------------|
-----------------------------------|----------------------|
--5-7-5-7-9-7br-5-5-7-5-7-7s-9-5-7-|--5-----5-7-5---------|
-----------------------------------|----7-7-------7-5-7-5-|
-----------------------------------|----------------------|
 
 

----------------------------------|---------------------------------|
--------------------------8-8-----|--------------------------8-10-8-|
--------7-9-7---------7-9-----7-9-|--------7-9-7---------7-9--------|
--5-7-9-------7-5-7-9-------------|--5-7-9-------7-5-7-9------------|
----------------------------------|---------------------------------|
----------------------------------|---------------------------------|
 
 

---------------|----------------------------|------------------|
--8---8-8p-7-7-|--8-8-8-10-8-7-8-8-8-10-8-7-|--8-8-8-10-8------|
----7----------|----------------------------|-------------7----|
---------------|----------------------------|---------------10-|
---------------|----------------------------|------------------|
---------------|----------------------------|------------------|
 
 

-----------------------------------|----------------------|
--8p-7-7-8-8-8-10-8-7-8-8-8-10-8-7-|--8-8-8-10-8-----8-10-|
-----------------------------------|-------------7-9------|
-----------------------------------|----------------------|
-----------------------------------|----------------------|
-----------------------------------|----------------------|
 
 

----------------------------------------------|---------------|
--8-10-8-10-10pbr-10pbr-8-8-10-8-10-10br-8-10-|--8---8-10-8---|
----------------------------------------------|----9--------9-|
----------------------------------------------|---------------|
----------------------------------------------|---------------|
----------------------------------------------|---------------|
 
 

----------------------------------------------|------------------------|
--8-10-8-10-10pbr-10pbr-8-8-10-8-10-10br-8-10-|--8-----8-10-8----------|
----------------------------------------------|----9-9--------9-7h-9-7-|
----------------------------------------------|------------------------|
----------------------------------------------|------------------------|
----------------------------------------------|------------------------|
 
 

----------------------|--------------------------|------------------|
----------------------|--------------------------|------------------|
----------------------|--------------------------|------------------|
--9-7-9-9-7-9-9-9-9-7-|--9-7-9-7-9-7-9-8-9-8-9-9-|--9-7-9-9-9-9-7-9-|
----------------------|--------------------------|------------------|
----------------------|--------------------------|------------------|
 
 

-----------------------|--------------------|--------------------|
-----------------------|--------------------|--------------------|
-----------------------|--------------------|--------------------|
--9-10-9----10-10-9----|--9-9-9-9-7-9-9-9-7-|--9-9-9-9-9-9-7-9-9-|
---------10---------10-|--------------------|--------------------|
-----------------------|--------------------|--------------------|
 
 

----------------------|------------------------------|
----------------------|------------------------------|
----------------------|------------------------------|
--9-7-9-7-9-7-9-9-9-9-|--10-10-10-9----10-10-10-9----|
----------------------|-------------10------------10-|
----------------------|------------------------------|
 
 

-----------------------------------|--8s-10-10-8-8-7-10-------------|
--12b-10-12-10-12-10br-8-10-8-10-8-|--------------------10-12-10-12-|
-----------------------------------|--------------------------------|
-----------------------------------|--------------------------------|
-----------------------------------|--------------------------------|
-----------------------------------|--------------------------------|
 
 

----------------------------------------------|---------------|
--8-10-8-10-10pbr-10pbr-8-8-10-8-10-10br-8-10-|--8---8-10-8---|
----------------------------------------------|----9--------9-|
----------------------------------------------|---------------|
----------------------------------------------|---------------|
----------------------------------------------|---------------|
 
 

--15-17-15-17-17b-17br-15-15-17-15-17-17br-15-17-|--15-------15-17-15----17-19-|
-------------------------------------------------|-----17-17----------17-------|
-------------------------------------------------|-----------------------------|
-------------------------------------------------|-----------------------------|
-------------------------------------------------|-----------------------------|
-------------------------------------------------|-----------------------------|
 
 

--17b-17pb-15-15-17-17b-22-22-17br-15-15-17-|
--------------------------------------------|
--------------------------------------------|
--------------------------------------------|
--------------------------------------------|
--------------------------------------------|
 
 

--15-17-15-17-17b-17br-15-15-17-15-17-17br-15-17-|
-------------------------------------------------|
-------------------------------------------------|
-------------------------------------------------|
-------------------------------------------------|
-------------------------------------------------|
 
 

--15-------15-17-15-------------||
-----17-17----------17-15-17-15-||
--------------------------------||
--------------------------------||
--------------------------------||
--------------------------------||
comments
We did not receive enough feedback on this tab! Please rate:
print report bad tab
1 2 3 4 5
I want to post or [tab]
guest
You may want to rate the tab now too:
select rating
Please do not post tabs as comments. Select "correction" instead!