Oops, an error
Loading. Please wait.

Funhouse Bass Tab

version 1
version 1

Whole song

Interactive

by P!nk
21,902 views 39 this week
5 commentsread comments
1 2 3 4 5
excellent!
x 6
add to favorites
launch autoscroll
font size
0
reset
guitar tuner
Tab Pro tools
  • play this tab
  • loop segment
  • change instrument
  • show fretboard
  • metronome
Autoscroll
slow
fast
+/-
esc
set tempo
stop
Contributor
-------------------------------------------------------------------------------
			     Funhouse - Pink
-------------------------------------------------------------------------------

Tabbed By : David Lefebvre
e-mail: exicrator@yahoo.com

Tuning:Standard - key of E

Fairly simple song, it has a great feel to it. Very funky, I've broken it down to four 
Verse/bridge/chorus/and mid run down. If you have any corrections please feel free to 
Thanks

Intro/Verse

G|-------------------------------------------------------------------------|
D|-------------------------------------------------------------------------|
A|-----2--3--2p0h2--0--0--2--0---------------------------------------------|
E|--0----------------------------3p2---------------------------------------|

Bridge

G|-------------------------------------------------------------------------|
D|-------------------------------------------------------------------------|
A|------------------2-2-2-2-3-3-3-3----------------------------------------|
E|--3-3-3-3-2-2-2-2--------------------------------------------------------|

Chorus

G|-------------------------------------------------------------------------|
D|-------------------------------------------------------------------------|
A|------------3-3--5-555---------------------------------------------------|
E|--0-0-0-000--------------------------------------------------------------|

Run Down

G|-------------------------------------------------------------------------|
D|-------------------------------------------------------------------------|
A|------7-7--6-6--5-5--4-4--3-3--2-2--0-0----------------------------------|
E|--0-0--------------------------------------------------------------------|

The run down ends on the G then to the B. There is a little pop fill after the run down 
Pink is singing the bass run
Run down End                        Pop fill
G|-------------------------------------------------------------------------|
D|------------------------------------------0h2----------------------------|
A|----2--------------------------------------------------------------------|
E|--3----------------------------------------------------------------------|

Here is the song layout

Verse X4
Bridge X2
Chorus X4
Verse X4
Bridge X2
Chorus X8
Verse X2
Run Down X4 Then run down end
Pop fill
Verse X2
Chorus X8

| /  slide up
| \  slide down
| h  hammer-on
| p  pull-off
| ~  vibrato
| +  harmonic
| x  Mute note
===============================================================================
comments
print report bad tab
5 comments total. Showing first comments.
0 reply
Tijmdo wrote on September 23 2009, 12:01 pm

Good tab, though I think the bridge should be this:
G|-------------------------------------------------------------------------|
D|-------------------------------------------------------------------------|
A|----------2-2-2-2---------3-3-3-3----------------------------------------|
E|--3-3-3-3---------0-0-0-0------------------------------------------------|

0 reply
Darkonike wrote on June 15 2015, 04:05 pm

More this for me: (bridge)

G|--------------------------------------------|
D|------------------2-2-2-2-------------------|
A|----------2-2-2-2---------3-3-3-3-----------|
E|--3-3-3-3-----------------------------------|

even nice tab :p

0 reply
Darkonike wrote on June 15 2015, 04:05 pm

More this for me: (bridge)

G|--------------------------------------------|
D|------------------2-2-2-2-------------------|
A|----------2-2-2-2---------3-3-3-3-----------|
E|--3-3-3-3-----------------------------------|

even nice tab :p

I want to post or [tab]
guest
You may want to rate the tab now too:
select rating
Please do not post tabs as comments. Select "correction" instead!