Oops, an error
Loading. Please wait.

Funhouse Tab

version 2
version 2

Whole song

Interactive

by P!nk
21,258 views 36 this week
no commentswrite comment
1 2 3 4 5
excellent!
x 5
add to favorites
launch autoscroll
font size
0
reset
how to read this tab
guitar tuner
Tab Pro tools
  • play this tab
  • loop segment
  • change instrument
  • show fretboard
  • metronome
×
Best way to learn
"Funhouse"
Autoscroll
slow
fast
+/-
esc
set tempo
stop
Difficulty
intermediate
I hope this is alright (fingers crossed)

                           INTRO (and chorus)

E|--7—-7--7-7-7-7-xxx-5—-5--5---7-7-7-7-----------------------|
B|--8—-8--8-8-8-8-xxx-5—-5--5---7-7-7-7-----------------------|
G|--9—-9--9-9-9-9-xxx-5--5--5---7-7-7-7-----------------------|
D|------------------------------------------------------------|
A|------------------------------------------------------------|
E|------------------------------------------------------------|

                           VERSE

E|--—--------—------------------------------------------------|
B|---------12-—----------12------------12------13-13--12------|
G|--9—-12-----12--9--12-----12--9--12------12-------------12--|
D|------------------------------------------------------------|
A|------------------------------------------------------------|
E|------------------------------------------------------------|

E|--—--------—------------------------------------------------|
B|---------12-—-----------10----10--12--10--------------------|
G|--9—-12------12--9--12-----12------------12--9--------------|
D|------------------------------------------------------------|
A|------------------------------------------------------------|
E|------------------------------------------------------------|

                           BRIDGE (palm muted)

E|--—--------—------------------------------------------------|
B|----------—-------------------------------------------------|
G|--—---------------------------------------------------------|
D|------------4-4-4-4---9-9-9-9---5-5-5-5---------------------|
A|--5-5-5-5---2-2-2-2---7-7-7-7---3-3-3-3---------------------|
E|--3-3-3-3---------------------------------------------------|

                            SOLO BIT

E|--—--------—------------------------------------------------|
B|----------—-------------------------------------------------|
G|--—---------------------------------------------------------|
D|------------------------------------------------------------|
A|-------7-7-6-6-5-5-4-4-3-3-2---0-2--------------------------|
E|--0-0------------------------3------------------------------|

                        Then:

E|--—--------—------------------------------------------------|
B|----------—-------------------------------------------------|
G|--—---------------------------------------------------------|
D|---------------------4--------------------------------------|
A|---------------------2--------------------------------------|
E|--3—-3--3--3--3--3------------------------------------------|


Thats all I know, sorry if it isn't very accurate but I spent about an hour trying to 
each bit better and thats all I've got.

 If you've got any problems don't email me, fix it yourself. Cheery-bye!!!

                               ;P
comments
print report bad tab
I want to post or [tab]
guest
You may want to rate the tab now too:
select rating
Please do not post tabs as comments. Select "correction" instead!