Oops, an error
Loading. Please wait.

Funhouse Bass Tab

version 3
version 3

Whole song

Interactive

by P!nk
3,058 views 3 this week
no commentswrite comment
1 2 3 4 5
excellent!
x 1
add to favorites
launch autoscroll
font size
0
reset
guitar tuner
Tab Pro tools
  • play this tab
  • loop segment
  • change instrument
  • show fretboard
  • metronome
Autoscroll
slow
fast
+/-
esc
set tempo
stop
Difficulty
novice
Funhouse

Intro/verse
G |---------------------------|
D |---------------------------|
A |---------------------------| ×4
E |--0-7-8-7-07-555-7-5-0-3---|

Pre-chorus
G |-----------------------------------------|
D |-----------------------------------------|
A |------------7777-3333----------7777-3333-|
E |--3333-7777----------3333-7777-----------|

Chorus
G |--------------------------------------|
D |--------------------------------------|
A |-10-10-10-1010-10---------------------| ×4
E |------------------8-8-8-10-1010-10----|

Intro/verse ×4
Pre-chorus
Chorus ×4
Intro/verse ×1

G |---------------|
D |---------------|
A |---------------|
E |--0-7-8-7-07-5-|

Bridge
G |-------------------------|
D |-------------------------|
A |----77-66-55-44-33-2-0-2-|×3
E |-00-----------------3----|


G |-------------------------|
D |-------------------------|
A |-------------------------|
E |-3-3-3-0-3-5-7--------7--|

(Gap)

Chorus ×10
comments
We did not receive enough feedback on this tab! Please rate:
print report bad tab
1 2 3 4 5
I want to post or [tab]
guest
You may want to rate the tab now too:
select rating
Please do not post tabs as comments. Select "correction" instead!