Oops, an error
Loading. Please wait.

Glitter In The Air Tab

version 2
version 2

Whole song

by P!nk
3,473 views 6 this week
no commentswrite comment
1 2 3 4 5
accurate
x 4
add to favorites
launch autoscroll
font size
0
reset
how to read this tab
guitar tuner
Tab Pro tools
  • play this tab
  • loop segment
  • change instrument
  • show fretboard
  • metronome
×
Best way to learn
"Glitter In The Air"
Autoscroll
slow
fast
+/-
esc
set tempo
stop
Contributor
----------------------------------------------------------------------------
                          Glitter in the Air - Pink
----------------------------------------------------------------------------
Tabbed by Bob Miller
onefinebob at gmail dot com

  F
e|1--1--1--1--|1--1--1--1--|1--1--1--1--|1--1--1--1--|
B|1--1--1--1--|1--1--1--1--|1--1--1--1--|1--1--1--1--|
G|------------|------------|------------|------------|
D|3--2--0-----|0-----------|3--2--0-----|0-----------|
A|---------3--|---3--1--0--|---------3--|---3--1--0--|
E|------------|------------|------------|------------|

Have you ever...
  F
e|1--1--1--1--|1--1--1--1--|1--1--1--1--|1--1--1--1--|
B|1--1--1--1--|1--1--1--1--|1--1--1--1--|1--1--1--1--|
G|------------|------------|------------|------------|
D|3--2--0-----|0-----------|3--2--0-----|0-----------|
A|---------3--|---3--1--0--|---------3--|---3--1--0--|
E|------------|------------|------------|------------|

Close your eyes...
  F
e|1--1--1--1--|1--1--1--1--|1--1--1--1--|1--1--1--1--|
B|1--1--1--1--|1--1--1--1--|1--1--1--1--|1--1--1--1--|
G|------------|------------|------------|------------|
D|3--2--0-----|0-----------|3--2--0-----|0-----------|
A|---------3--|---3--1--0--|---------3--|---3--1--0--|
E|------------|------------|------------|------------|
  
Have you ever...
  Gm Am Bb     Gm Am Bb     F
e|------------|------------|1--1--1--1--|1--1--1--1--|
B|------------|------------|1--1--1--1--|1--1--1--1--|
G|--3--5--7---|--3--5------|------------|------------|
D|-5--7--8----|-5--7---8---|3--2--0-----|0-----------|
A|------------|-------8----|---------3--|---3--1--0--|
E|3--5--6-----|3--5--6-----|------------|------------|

 Have you ever...
  Gm Am Bb     Gm Am Bb     F
e|------------|------------|1--1--1--1--|1--1--1--1--|
B|------------|------------|1--1--1--1--|1--1--1--1--|
G|--3--5--7---|--3--5---7--|------------|------------|
D|-5--7--8----|-5--7---8---|3--2--0-----|0-----------|
A|------------|-------8----|---------3--|---3--1--0--|
E|3--5--6-----|3--5--6-----|------------|------------|

 It’s only...               tip of...
  C            Bb           C            Bb
e|------------|------------|------------|------1-----|
B|------------|------------|------3-----|3-----3-----|
G|5-----------|3--------3--|5-----5-----|3-----3-----|
D|5-----------|3--------3--|5--5--------|3--3--------|
A|3-----------|1--------1--|3-----------|1-----------|
E|------------|------------|------------|------------|

  Thunder...                ever felt...
  F            C            Bb
e|1-----1-----|3--1--3-----|------1-----|6-----------|
B|1-----1-----|1-----1-----|3-----3-----|6-----------|
G|2-----2-----|0-----0-----|3-----3-----|7-----------|
D|3-----3-----|2-----------|3-----------|8-----------|
A|3--3--------|3-----------|1-----------|------------|
E|1-----------|------------|------------|------------|

  F
e|--1--1--1--1|--1--1--1--1|--1--1--1--1|--1--1--1--1|
B|-1--1--1--1-|-1--1--1--1-|-1--1--1--1-|-1--1--1--1-|
G|------------|------------|------------|------------|
D|3--2--0-----|0-----------|3--2--0-----|0-----------|
A|---------3--|---3--1--0--|---------3--|---3--1--0--|
E|------------|------------|------------|------------|

   Have you ever...
  F
e|--1--1--1--1|--1--1--1--1|--1--1--1--1|--1--1--1--1|
B|-1--1--1--1-|-1--1--1--1-|-1--1--1--1-|-1--1--1--1-|
G|------------|------------|------------|------------|
D|3--2--0-----|0-----------|3--2--0-----|0-----------|
A|---------3--|---3--1--0--|---------3--|---3--1--0--|
E|------------|------------|------------|------------|
 
  Whole life...
  F
e|--1--1--1--1|--1--1--1--1|--1--1--1--1|--1--1--1--1|
B|-1--1--1--1-|-1--1--1--1-|-1--1--1--1-|-1--1--1--1-|
G|------------|------------|------------|------------|
D|3--2--0-----|0-----------|3--2--0-----|0-----------|
A|---------3--|---3--1--0--|---------3--|---3--1--0--|
E|------------|------------|------------|------------|

 Have you ever...
  Gm Am Bb     Gm Am Bb     F
e|------------|------------|--1--1--1--1|--1--1--1--1|
B|----------6-|------------|-1--1--1--1-|-1--1--1--1-|
G|--3--5---7-7|--3--5---7--|------------|------------|
D|-5--7---8---|-5--7---8---|3--2--0-----|0-----------|
A|-------8----|-------8----|---------3--|---3--1--0--|
E|3--5--6-----|3--5--6-----|------------|------------|

 Have you ever...
  Gm Am Bb     Gm Am Bb     F
e|------------|------------|--1--1--1--1|--1--1--1--1|
B|----------6-|---------6--|-1--1--1--1-|-1--1--1--1-|
G|--3--5---7-7|--3--5----7-|------------|------------|
D|-5--7---8---|-5--7---8--8|3--2--0-----|0-----------|
A|-------8----|-------8----|---------3--|---3--1--0--|
E|3--5--6-----|3--5--6-----|------------|------------|

 It’s only...
  C            Bb           C            Bb
e|------3-----|------1-----|------3-----|------1-----|
B|------5-----|------3-----|------5-----|3-----3-----|
G|5-----5-----|3-----3-----|5-----5-----|3-----3-----|
D|5--5-----5--|3--3-----3--|5--5--------|3--3--------|
A|3-----------|1-----------|3-----------|1--------10-| (<--1-0, not 10)
E|------------|------------|------------|-----------3|

 Breath before...
  F            C            Bb
e|------1-----|0-----0-----|------1-----|6-----------|
B|1-----1-----|1-----1-----|3-----3-----|6-----------|
G|2-----2-----|0-----0-----|3-----3-----|7-----------|
D|3-----3-----|2-----2-----|3-----------|8-----------|
A|3--3-----3--|3-----3-----|1-----------|------------|
E|1-----------|------------|------------|------------|

                            La la la la   la la la la
  F
e|-1--1--1--1-|-1--1--1--1-|-1--1--1--1-|-1--1--1--1-|
B|--1--1--1--1|--1--1--1--1|--1--1--1--1|--1--1--1--1|
G|------------|------------|------------|------------|
D|3--2--0-----|0-----------|3--2--0-----|0-----------|
A|---------3--|---3--1--0--|---------3--|---3--1--0--|
E|------------|------------|------------|------------|

  F
e|-1--1--1--1-|-1--1--1--1-|
B|--1--1--1--1|--1--1--1--1|
G|------------|------------|
D|3--2--0-----|0-----------|
A|---------3--|---3--1--0--|
E|------------|------------|

 There you...
  Dm           G            Dm           G
e|1-----------|3-----------|1-----------|3-----3-----|
B|3-----------|3-----------|3----------3|3-----3-----|
G|2-----------|4-----------|2---------2-|4-----4-----|
D|0-----------|5-----------|0--------0--|5-----------|
A|0-----------|5-----------|0-----------|5-----------|
E|------------|3-----------|------------|3-----------|

Sugar...
  F            C/E          Dm/F         C/E
e|1-----------|0-----------|1-----------|0-----------|
B|1-----------|1-----------|3-----------|1-----------|
G|2-----------|0-----------|2-----------|2-----------|
D|3-----------|2-----------|0-----------|0-----------|
A|3-----------|3-----------|0-----------|3-----------|
E|1-----------|0-----------|1-----------|0-----------|

  F            C/E          Dm/F         C/E
e|1-----------|0-----------|1-----------|0-----------|
B|1-----------|1-----------|3-----------|1-----------|
G|2-----------|0-----------|2-----------|2-----------|
D|3-----------|2-----------|0-----------|0-----------|
A|3-----------|3-----------|0-----------|3-----------|
E|1-----------|0-----------|1-----------|0-----------|

 Have you...
  F
e|1--1--1--1--|1--1--1--1--|--1--1--1--1|--1--1--1--1|
B|1--1--1--1--|1--1--1--1--|-1--1--1--1-|-1--1--1--1-|
G|------------|------------|------------|------------|
D|3--2--0-----|0-----------|3--2--0-----|0-----------|
A|---------3--|---3--1--0--|---------3--|---3--1--0--|
E|------------|------------|------------|------------|

 Lasso the...
  F
e|1--1--1--1--|1--1--1--1--|--1--1--1--1|--1--1--1--1|
B|1--1--1--1--|1--1--1--1--|-1--1--1--1-|-1--1--1--1-|
G|------------|------------|------------|------------|
D|3--2--0-----|0-----------|3--2--0-----|0-----------|
A|---------3--|---3--1--0--|---------3--|---3--1--0--|
E|------------|------------|------------|------------|

Have you...
  Gm Am Bb     Gm Am Bb     Gm Am Bb     Gm Am Bb
e|------------|------------|------------|------------|
B|------------|---------6--|----------6-|---------6--|
G|--3--57-----|--3--5----7-|--3--5---7-7|--3--5----7-|
D|-5--7-------|-5--7---8--8|-5--7---8---|-5--7---8--8|
A|------------|-------8----|-------8----|-------8----|
E|3--5--6-----|3--5--6-----|3--5--6-----|3--5--6-----|

Tonight...
  F
e|--1--1--1--1|--1--1--1--1|--1--1--1--1|--1--1-----1---1-||
B|-1--1--1--1-|-1--1--1--1-|-1--1--1--1-|-1--1---1------1-||
G|------------|------------|------------|-----------------||
D|3--2--0-----|0-----------|3--2--0-----|0----------------||
A|---------3--|---3--1--0--|---------3--|---3--1--------0-||
E|------------|------------|------------|-----------------||

============================================================================

comments
print report bad tab
I want to post or [tab]
guest
You may want to rate the tab now too:
select rating
Please do not post tabs as comments. Select "correction" instead!