Oops, an error
Loading. Please wait.

Just Give Me A Reason Tab

version 1
version 1

Whole song

Interactive

by P!nk
118,421 views 105 this week
1 commentread comment
1 2 3 4 5
worth learning
x 7
add to favorites
launch autoscroll
font size
0
reset
how to read this tab
guitar tuner
Tab Pro tools
  • play this tab
  • loop segment
  • change instrument
  • show fretboard
  • metronome
×
Best way to learn
"Just Give Me A Reason"
Autoscroll
slow
fast
+/-
esc
set tempo
stop
Contributor
Difficulty
Tuning
intermediate
D A D G B E
-----------------------------------------------------------------------------
                          Just Give Me A Reason     - Pink
-----------------------------------------------------------------------------


Tabbed by:jari (iligan CT)
E-mail:jari.ramirez@ymail.com(FB)


THIS my second tabs of this song.... 
this version ..let we call it a semi-finger style of song ^_^
(REMEMBER  Drop D tuning ^_^)

TUNING: DADGBe

INTRO:  Em, A, D, G, C, Bm, Am

e|---------------5----------------------|
B|-8-8-8----7--5---7--7/8---------------|
G|-------------------------7------------|
D|--------------------------------------|
A|-7-7-7----5--4---5--------------------|
D|--------------------------------------|


e|--------------------------------------|
B|--------------------------------------|
G|-5---4---2-----------7----------------|
D|---------2-------7h9----9p7---5~------|
A|-3---2---0----------------------------|
D|--------------------------------------|


Verse:G C Em C

Right from the start
          
You were a thief you stole my heart....
e|-------------------------------------------|
B|-------------------------------------------|
G|---4-4-4-4-4------4----5-5-5-5-5----5p4----|
D|-----5-5-5-5--5-7-----------------------5--|
A|-----------------------3-3-3-3-3--3--------|
D|-5---5-5-5-5-------------------------------|


And I your willing victim....  (then FILL)
e|---------------------------|----------------|
B|---------------------------|------3---------|
G|--9-----9--7--------4------|--2/4---4-2-----|
D|-10--10---10------5--------|-------------5--|
A|---------------------------|----------------|
D|-10-------10---/5----------|----------------|

REFRAIN:Em A D G   G C Bm D

Now you've been talking in your sleep  oh oh.....
e|------------5--------------------------------|
B|-8-8-8--7-5---7------------------------------|
G|--------------------(12)---------------------|
D|--------------------(12)---------------------|
A|-7-7-7--5-4---5------------------------------|
D|---------------------------------------------|

THEN......Of our love, our love..........
e|---------------------------------------------|
B|----------------8----------------------------|
G|-5-4--2---5-7-7------------------------------|
D|------2--------------------------------------|
A|-3-2------3-5-5------------------------------|
D|---------------------------------------------|

CHORUS:  G D  Em C

Just give me a reason just a little bit's enough.....
e|-7--3-----------7--|---5--------------5------------------|
B|----3-----3--------|------7-----3------------------------|
G|-------------------|-------------------------------------|
D|-------------------|-------------------------------------|
A|-------------------|---5-----5-----5---------------------|
D|-5-----5-----5-----|-------------------------------------|

Just a second we're not broken just bent
e|----------------------------------------------|
B|-8---8-7-5-7-1--------------------------------|
G|----------------------------------------------|
D|----------------------------------------------|
A|-7-7---5-4-5-3--------------------------------|
D|----------------------------------------------|

And we can learn to love again
e|---7-7h87------7------------|
B|----------10-8--------------|
G|----------------------------|
D|----------------------------|
A|----------------------------|
D|----------------------------|

back CHORUS...
comments
print report bad tab
1 comment total.
0 reply
jemel.villagrac wrote on August 15 2014, 06:58 pm

great its too easy to play :) thanks for this tab

I want to post or [tab]
guest
You may want to rate the tab now too:
select rating
Please do not post tabs as comments. Select "correction" instead!